Song name
# A B C D E F G H I J K L M N O P Q R S T U V W X Y Z

Afi - End Transmission tab

AFI - End Transmission Intro

from "Crash Love"

One of my favorites from the album ;]
********************************************

Tuning: Eb Ab Db Gb Bb eb

Intro:
p.m................................ grad. release......................
----9----9----9----9----9----9----9----9----12--------|
----------10---10---10---10---10---10---10----10--10--|
-11---11----11---11---11---11---11---11---11----11----|
------------------------------------------------------|
------------------------------------------------------|
------------------------------------------------------|

Intro 2:
----9-------12------------5------7/9--9------------5-----5----------4------5p4----4---------|
------10-------10-----------7------------7-----------5-----5----------5---------------5-----|
/11------11-------11---7------7-------------7---6------6-----6----4-----4-------4--------4--|
--------------------------------------------------------------------------------------------|
--------------------------------------------------------------------------------------------|
--------------------------------------------------------------------------------------------|

----9-------12------------5------7/9--9------------5-----5-----------9-----------9------------|
------10-------10-----------7------------7-----------5-----5------------10----------10--------|
-11------11-------11---7------7-------------7---6------6-----6----9----------9---------9------|
----------------------------------------------------------------------------------------------|
----------------------------------------------------------------------------------------------|
----------------------------------------------------------------------------------------------|

Verse (at 00:43):
----------------------7--|
---------------5----5----|
-------------------------|
--------7----7-----------|
-9----9------------------|
-------------------------|

Play the second bar of Intro 2, then play:
-------------------------|
-------------------------|
----------------------4--|
--------7----7-----------|
-9----9--------7----7----|
-------------------------|

----------------------7--|
---------------5----5----|
-------------------------|
--------7----7-----------|
-9----9------------------|
-------------------------|

I'll hopefully figure out the whole song sometime...
Tap to rate this tab
# A B C D E F G H I J K L M N O P Q R S T U V W X Y Z