Song name
# A B C D E F G H I J K L M N O P Q R S T U V W X Y Z

Afi - Dont Make Me Ill tab

Band: AFI
Song: Don't Make Me Ill
Album: Answer That And Stay Fashionable (1995)
Tabbed By: Johnny-go-go

This is one of my top 10 AFI songs. I absolutely love it. The tab I found was missing a 
of chords, so I thought I'd make a more updated one. This is at least 98% accurate. I'm 
sure about the chord that is played at the end of the intro.


Intro
e|-----------------------------|
B|-----------------------------|
G|-777777----------------------|
D|-777777-55-77-5-777777777777-|    x4
A|-555555-55-77-5-777777777777-|
E|--------33-55-3-555555555555-|

e|----------------------------------|
B|----------------------------------|
G|----------------------------------|
D|-777777777777-5-77-5-77-5-77-5-77-|
A|-777777777777-5-77-5-77-5-77-5-77-|
E|-555555555555-3-55-3-55-3-55-3-55-|

Verse
e|--------------------------------------------------------|
B|--------------------------------------------------------|
G|-777777---------------------777777----------------------|
D|-777777-555555-777777777777-777777-777777-555555-777777-|    x2
A|-555555-555555-777777777777-555555-777777-555555-777777-|
E|--------333333-555555555555--------555555-333333-555555-|

Pre-chorus (no one, no one....)
e|---------------------------------------------------------|
B|---------------------------------------------------------|
G|-----------------------------777777----------------------|
D|-555555-777777-999999-555555-777777-555555-777777-555555-|
A|-555555-777777-999999-555555-555555-555555-777777-555555-|
E|-333333-555555-777777-333333--------333333-555555-333333-|

Verse
e|--------------------------------------------------------|
B|--------------------------------------------------------|
G|-777777---------------------777777----------------------|
D|-777777-555555-777777777777-777777-777777-555555-777777-|    x2
A|-555555-555555-777777777777-555555-777777-555555-777777-|
E|--------333333-555555555555--------555555-333333-555555-|

Pre-chorus (no one, no one....)
e|---------------------------------------------------------|
B|---------------------------------------------------------|
G|-----------------------------777777----------------------|
D|-555555-777777-999999-555555-777777-555555-777777-555555-|
A|-555555-777777-999999-555555-555555-555555-777777-555555-|
E|-333333-555555-777777-333333--------333333-555555-333333-|

Chorus (no one's gonna tell me.....)
e|-----------------------------|
B|-----------------------------|
G|-777777----------------------|
D|-777777-777777-999999-555555-|    x2
A|-555555-777777-999999-555555-|
E|--------555555-777777-333333-|

Transition
e|------------------------------------------------------|
B|------------------------------------------------------|
G|-----------------------------------------------777777-|
D|-777777777777-555555555555-777777777777-555555-777777-|
A|-777777777777-555555555555-777777777777-555555-555555-|
E|-555555555555-333333333333-555555555555-333333--------|

e|---------------------------------------------------|
B|---------------------------------------------------|
G|-----------------------------------------------7-7-|
D|-777777777777-555555555555-777777777777-555555-7-7-|
A|-777777777777-555555555555-777777777777-555555-5-5-|
E|-555555555555-333333333333-555555555555-333333-----|
PM  ...........  ...........  ...........  .....

Solo
e|--------------------------------------|
B|--------------------------------------|
G|------------------------6h7p6-9-7-6---|
D|-----4h5p4-7-5-4----7-7-------------7-|    x2
A|-5-5-------------5--------------------|
E|--------------------------------------|

e|-------------------------------|
B|-------------------------------|
G|-------------------------6h7-9-|
D|-----4h5p4-7-5-4----7-7--------|    x2
A|-5-5-------------5--7-7--------|
E|--------------------5-5--------|

Chorus (no one's gonna tell me.....)
e|-----------------------------|
B|-----------------------------|
G|-777777----------------------|
D|-777777-777777-999999-555555-|    x6
A|-555555-777777-999999-555555-|
E|--------555555-777777-333333-|

e|----|
B|----|
G|-7~-|
D|-7~-|
A|-5~-|
E|----|

Chorus (no one's gonna tell me.....)
e|-----------------------------|
B|-----------------------------|
G|-777777----------------------|
D|-777777-777777-999999-555555-|    x4
A|-555555-777777-999999-555555-|
E|--------555555-777777-333333-|

e|----------|
B|----------|
G|-7~----7\-|
D|-7~----7\-|
A|-5~----5\-|
E|----------|


| h  hammer-on
| p  pull-off
| ~  let ring
| \  slide down
Tap to rate this tab
 
# A B C D E F G H I J K L M N O P Q R S T U V W X Y Z