Song name
# A B C D E F G H I J K L M N O P Q R S T U V W X Y Z

Afi - Too Shy To Scream tab

Afi - Too Shy To Scream
-----------------------

tabbed by David Dvora - daviddvora@gmail.com

i fucking love this song!!!



I come quietly. Silent entities can   lack a certain  weight when  unseen.
|------------------------------------ --------------- ------------ -------| 
|------------------------------------ --------------- ------------ -------| 
|------------------------------------ --------------- -6-6-6------ -------| 
|-8--8--8--8--8--8--8--8--8--8--8--8- -8-3-4-4-4-4-4- -6-6-6------ -8--8--| 
|-8--8--8--8--8--8--8--8--8--8--8--8- -8-3-4-4-4-4-4- -4-4-4------ -8--8--| 
|-6--6--6--6--6--6--6--6--6--6--6--6- -6-1-2-2-2-2-2- ------------ -6--6--| 
(this part is partially palm muted)


Do they speak of me? My voice left with the breeze that 
|------------------------------------------------------| 
|------------------------------------------------------| 
|------------------------------------------------------| 
|-8--8--8--8--8--8--8--8--8--8--8--8--8--8--8--8--8--8-| 
|-8--8--8--8--8--8--8--8--8--8--8--8--8--8--8--8--8--8-| 
|-6--6--6--6--6--6--6--6--6--6--6--6--6--6--6--6--6--6-| 

whispered "You should  flee         or you shall be 	seen."
|---------------       ------------ ------------    	------------| 
|---------------       ------------ ------------    	------------| 
|---------------       -6-6-6------ ------------    	------------| 
|-8-3-4-4-4-4-4-       -6-6-6------ -6-6-6-6-6--    	-4-6-8-3-4--| 
|-8-3-4-4-4-4-4-       -4-4-4------ -6-6-6-6-6--    	-4-6-8-3-4--| 
|-6-1-2-2-2-2-2-       ------------ -4-4-4-4-4--    	-2-4-6-1-2--| 


Chorus

I'd die if you only met my eyes. Before you pass by, will you pause to  break my heart. X2
|---------------------------------------------------------------------- -------------------| 
|---------------------------------------------------------------------- -------------------| 
|----------------6----------------------------------------------------- -------8-----------| 
|-4--------------6----------------------6------------8----------------- -4-6-8-8-----------| 
|-4--------------4----------------------6------------8----------------- -4-6-8-6-----------| 
|-2-------------------------------------4------------6----------------- -2-4-6-------------|
                                                                       (first time only)


for the part of
"I am everywhere, everywhere but here"

|----------------------------------------------------------------| 
|----------------------------------------------------------------| 
|----------------------------------------------------------------| 
|-8--6--4--3-----------------------------------------------------| 
|-8--6--4--3-----------------------------------------------------| 
|-6--4--2--1-----------------------------------------------------| 

have fun!
tell me if you liked it!
daviddvora@gmail.com
Tap to rate this tab
# A B C D E F G H I J K L M N O P Q R S T U V W X Y Z