Song name
# A B C D E F G H I J K L M N O P Q R S T U V W X Y Z

Afi - Ok I Feel Better Now tab

Ok, this is Ok, i Feel Better Now Pretty Easy Song To Play

Intro

[----------------------------]
[----------------------------]
[-9(x20)-7(x9)-10(x3)-7(x3)--]
[-10(x20)9(x9)-10(x3)-9(x3)--]
[----------------------------]
[----------------------------]
[----------------------------]

Then PLay
[--------------]
[--------------]
[9-------------] Pre-Coures
[7-(x6)-3------]
[0------3-(x9)-]
[-------1------]

After That Go Back To The Intro Pla That For a Few Times Then The Pre-Coures

Then Play This
[-----------------------------------------]
[-----------------------------------------]
[----------------------10---10----13------]
[----10---10-10--9--9-------------x---(x8)]
[-0-----0---0---0-0---0---0----0--11------]
[---------------------------------0-------]

Coures Time!
[----------------------------------------]
[----------------------------------------]
[-5---7----------------------------------]
[-5---7--7--3-----(x2)---3-9-10-14-------]  Find Out Every Thing Your Self
[-3---5--7--3------------x-x-x--x--------]
[--------5--1------------5-7-8--12-------]
On The second Time Don't Play The F Note

[-------------------------------]
[10~--10-8----------------------]
[----------7-9~--7~--7-5-9-7----]
[-----------------------------10]
[-------------------------------]
[-------------------------------]

Then Back To Intro 
...Then Yea Same Order
Then Play The Bridge
[---12---------12----------12---------12---------12--------12-----]
[-----13-(x2)-----13-(x2)----13-(x2)----13-(x2)----13(x2)----13---]
[14-----14---13------13--12-----12--11----11---10----10--12----12-]
[-----------------------------------------------------------------]
[-----------------------------------------------------------------]
[-----------------------------------------------------------------]
Then Yea Back To Chours
Finish HARD On Last Chours

Its Not The Best But Rate and Comment
Tap to rate this tab
 
# A B C D E F G H I J K L M N O P Q R S T U V W X Y Z