Song name
# A B C D E F G H I J K L M N O P Q R S T U V W X Y Z

Afi - Medicate tab

The song Medicate by AFI, off their new album titled Crash Love. The following piece of 
will show you how to play each part then at the end, it will put it all together and 
you when to play each part. Good luck!!! :D


INTRO:

e|-------------------|------------------|------------------|-------------------------|
b|-------------------|------------------|------------------|-----------------4-4-4-4-|
g|--------4p3--------|-------4p3--------|-------4p3--------|-------------------------|
d|--6-6-6------6-4-4-|-6-6-6------6-4-4-|-6-6-6------6-4-4-|-6-6-6---6-6-6-6---------|
a|-------------------|------------------|------------------|-------------------------|
E|-------------------|------------------|------------------|-------------------------|

e|-------------------|------------------|------------------|-------------------|
b|-------------------|------------------|------------------|-------4-4-4-----4-|
g|--------4p3--------|-------4p3--------|-------4p3--------|-------------------|
d|--6-6-6------6-4-4-|-6-6-6------6-4-4-|-6-6-6------6-4-4-|-6-6-6-------6-6---|
a|-------------------|------------------|------------------|-------------------|
E|-------------------|------------------|------------------|-------------------|

VERSE:
*There is a strumming pattern...figure it out ;)*
e|----------------------------------------------|
b|----------------------------------4-4-4-----4-|
g|--------6-----4-------------------------------|
d|--6-----6-x9--4-x5---4------------------6-6---|
a|--6-x9--4-----2------4-x5---------------------|
E|--4------------------2------------------------|


e|----------------------------------|
b|----------------------------------|
g|--------6-----4-------------------|
d|--6-----6-x9--4-x5---4------------|
a|--6-x9--4-----2------4-x5---------|
E|--4------------------2------------|

e|---------------|
b|---------------|
g|---------------|
d|--3-----2-2-4-4|
a|--3-x5--2-2-4-4|
E|--1-----0-0-2-2|

PRE-CHORUS:

e|--------------------------------------------------------------------|
b|--------------------------------------------------------------------|
g|------4h6------4h6------4h6------4h6------4h6------4h6------6p4-----|
d|----6--------6--------6--------6--------6--------6--------6-----6p4-|
a|--------------------2-----------------------------------2-----------|
E|--4--------2-----------------1--------4--------2--------------------|


CHORUS:

LEAD PART:

e|---------|
b|--4------|
g|----6p4--|
d|---------| Repeat this throughout the chorus
a|---------|
E|---------|

RHYTHM PART:

e|------------------------------------------------------------------------------------------|
b|------------------------------------------------------------------------------------------|
g|------------4-4-4-4-4-----------6-6-6-6-6---------------------6-6-6-6-9-9-9-9-11--11--11--|
d|--6-6-6-6-6-4-4-4-4-4-4-4-4-4-4-6-6-6-6-6-6-6-6-6-6-4-4-4-4-4-6-6-6-6-9-9-9-9-11--11--11--|
a|--6-6-6-6-6-2-2-2-2-2-4-4-4-4-4-4-4-4-4-4-6-6-6-6-6-4-4-4-4-4-4-4-4-4-7-7-7-7--9---9---9--|
E|--4-4-4-4-4-----------2-2-2-2-2-----------4-4-4-4-4-2-2-2-2-2-----------------------------|

BREAKDOWN:

Clean part:

e|-----11-------11-------11----11-------11-------11----11-------11-------11----11-|
b|--------12-------12-------------12-------12-------------12-------12-------------|
g|--13-------13-------13----------------------------------------------------------|
d|--------------------------14-------14-------14----15-------15-------15----14----|
a|--------------------------------------------------------------------------------|
E|--------------------------------------------------------------------------------|

e|-----11-------11-------11-|
b|--------12-------12-------|
g|--------------------------|
d|--14-------14-------14----|
a|--------------------------|
E|--------------------------|

Keep repeating this until the distortion part comes in.

Distortion Part:

e|--------------|------------------|----------------|----------------------|
b|--------------|------------------|----------------|----------------------|
g|--------------|------------------|------6-6-6-6-6-|--6-6-----------------|
d|--6-6-6-6-6---|--6-6-2-2-2-2-2-2-|--2-2-6-6-6-6-6-|--6-6-2-2-2-2-2---2-2-|
a|--6-6-6-6-6---|--6-6-2-2-2-2-2-2-|--2-2-4-4-4-4-4-|--4-4-2-2-2-2-2---2-2-|
E|--4-4-4-4-4---|--4-4-0-0-0-0-0-0-|--0-0-----------|------0-0-0-0-0---0-0-|

Keep Repeating until the breakdown is over...you'll know when its over.


SOLO:

e|--16-16-16----------18-18-18------------------------------------------|
b|--------------------------------------17-14-16-14--------------12-----|
g|-----------13-15-16----------15-16-18-------------15-16-15-----14b15--|
d|-----------------------------------------------------------18---------|
a|----------------------------------------------------------------------|
E|----------------------------------------------------------------------|

e|---------------16---------------19---|
b|-----------------16---------------19-|
g|-------------------------------------|
d|-------------------------------------|
a|--16p14-16p14-------16p14-16p14------|
E|-------------------------------------|

e|---------------------------4/11-|
b|--------------------------------|
g|--------------------------------|
d|--16----------------------------|
a|-----16-14-16-16b17--14---------|
E|------------------------16------|

e|--11p7----11p7----11p7-----16~--|-------------------------------------|
b|--------9-------9-------9-------|-------------------------------------|
g|--------------------------------|-------------------------------------|
d|--------------------------------|-------------------------------------|
a|--------------------------------|--16p14-----16p14-----16p14-----16~--|
E|--------------------------------|---------16--------16--------16------|

e|----------------------------------|
b|-----------------7------7---------|
g|----------4-6b8----6b8----6-4-----|
d|------4-6---------------------6~--|
a|--4-6-----------------------------|
E|----------------------------------|

OUTRO:

|---------------------------------------------------|
|---------------------------------------------------|
|--11-11-11-11-11-6-6-6-6-6-8~--9~--6---------------|
|--11-11-11-11-11-6-6-6-6-6-8---9---6--------6~~~~--|
|--9--9--9--9--9--4-4-4-4-4-6---7---4--------6------|
|--------------------------------------------4------|


-INTRO x1
-VERSE x1
-PRE-CHORUS x1
-CHORUS x1
-INTRO x .5 (only the beginning part)
-VERSE x1
-PRE-CHORUS
-CHORUS x2
-BREAKDOWN x1
-INTRO x .5
-CHORUS x3
-SOLO x1
-OUTRO x1
-
Tap to rate this tab
# A B C D E F G H I J K L M N O P Q R S T U V W X Y Z