Song name
# A B C D E F G H I J K L M N O P Q R S T U V W X Y Z

Afi - Torch Song tab

This is taken from various sources, but put together so you only need one guitar 
to play it rather than the multiple guitars that Jade uses in the studio. 


Intro pt. 1
|--------------|--------------|--------------|------------|
|--------------|--------------|--------------|16~~~~~~~~~~|
|-------17-----|-------13-----|-------17-----|------------|
|14------x-----|14------x-----|14------x-----|------------|
|14(x12)15-----|14(x12)11-----|14(x12)15-----|------------|
|--------------|--------------|--------------|------------|

Intro pt. 2
|-------------------|-------------------|-------------------|----------------------|
|-------------------|-------------------|-------------------|----------------------|
|16-16-----16-------|17-17-----17-------|16-16-----16-------|13-13-----13-------13-|
|-x--x------x-------|-x--x------x-------|-x--x------x-------|-x--x------x--------x-|
|14-14(x2)-14(x2)---|15-15(x2)-15(x2)---|14-14(x2)-14(x2)---|11-11(x2)-11(x2)---11-|
|-0--0------0-------|-0--0------0-------|-0--0------0-------|-0--0------0--------0-|

|-----------------------|------------------------|------------------------|-----------
|-------------17(x5)----|----------20(x3)--------|------------------------|-----------
|16-16-----16-16-----16-|17-17-----17-----17-----|19-19-----19-----19-----|20---------
|-x--x------x---------x-|-x--x-------------x-----|-x--x------x------x-----|-x---------
|14-14(x2)-14--------14-|15-15(x2)--------15(x3)-|17-17(x2)-17(x2)-17(x3)-|18(x8)-----
|-0--0------0---------0-|-0--0-------------0-----|-0--0------0------0-----|-0-----12\-

Intro pt.3
|----------------------------------|------------------------------------|
|17--------15p13h15----------------|------------------------------------|
|---14h17-----------14h17p14h17p14-|17p16h17p16h17p16-17p14h17p14h17p14-|
|----------------------------------|------------------------------------|
|----------------------------------|------------------------------------|
|----------------------------------|------------------------------------|

|----------------------------------|----------------------------------|
|17--------15p13h15----------------|----------------------------------|
|---14h17-----------14h17p14h17p14-|17p16h17p16h17p16-14-----14h16h17-|
|----------------------------------|----------------------17----------|
|----------------------------------|----------------------------------|
|----------------------------------|----------------------------------|

|----------------12-12-|---------------------------|
|----------------------|-----13--------------------|
|14-14(X2)-14\10-------|12-12---12/14--17p14h17p14-|
|----------------------|---------------------------|
|----------------------|---------------------------|
|----------------------|---------------------------|

|--------------------------|------------------------|----------------------|
|--------------------------|------------------------|----------------------|
|16h17p16h17p16\-12--17-16-|12--17--16------17--16--|14b15r14--------------|
|--------------------------|------------14----------|play and hold over----|
|--------------------------|------------------------|the first two measures|
|--------------------------|------------------------|of verse one, part one|

Verse 1 pt. 1
|--------------|--------------|------------|------------|
|--------------|--------------|------------|------------|
|--------------|------------9-|------------|----------9-|
|..............|.......---7---|............|.....---7---|
|7--7--7-7-7-7-|7--7--7-8-----|7--7--7-7-7-|7-7-7-8-----|
|5--5--5-5-5-5-|5--5--5-------|5--5--5-5-5-|5-5-5-------|

|--------------|--------------|--------------|--------------|
|--------------|--------------|--------------|--------------|
|--------------|--------------|--------------|--------------|
|..............|..............|..............|.......-------|
|7--7--7-5-5-5-|2--2--2-3-3-3-|7--7--7-5-5-5-|2--2--2-3-----|
|5--5--5-3-3-3-|0--0--0-1-1-1-|5--5--5-3-3-3-|0--0--0-1-----|

 
Verse 1 pt. 2
|--------------|--------------|------------|----------------------|
|--------------|--------------|------------|----------------------|
|..............|------------9-|------------|--------9h10p9--------|
|--------------|.......---7---|............|.....----------9h10p9-|
|7--7--7-7-7-7-|7--7--7-8-----|7--7--7-7-7-|7-7-7-8---------------|
|5--5--5-5-5-5-|5--5--5-------|5--5--5-5-5-|5-5-5-----------------|

|--------------|--------------|----------------|-----------------|
|--------------|--------------|----------------|-----------------|
|--------------|--------------|----------------|-----------------|
|..............|..............|................|...--------3-3-3-|
|7--7--7-5-5-5-|2--2--2-3-3-3-|7-7(x2)-7-5-5-5-|2--2(x2)-2-3-3-3-|
|5--5--5-3-3-3-|0--0--0-1-1-1-|5-5-----5-3-3-3-|0--0-----0-1-1-1-|

Verse 1 pt. 3
|------------------------------------|------------------------------------|
|------------------------------------|------------------------------------|
|------------------------------------|------------------------------------|
|------------------------------------|14p12h14p12h14p12-14p12h14p12h14p12-|
|15p14h15p14h15p14-15p14h15p14h15p14-|------------------------------------|
|------------------------------------|------------------------------------|

Chorus 1
|---------8-7-5-|---------5-3-0-|------------|--------------|
|---------------|---------------|------------|--------------|
|---------------|---------------|------------|--------------|
|7-----7--------|5-----5--------|3---3-------|7-----7-7-----|
|7(x2)-7--------|5(x2)-5--------|3---3(x5)---|7(x2)-7-7(x7)-|
|5-----5--------|3-----3--------|1---1-------|5-----5-5-----|

|---------8-7-5-|---------5-3-0-|----------------|----------------|
|---------------|---------------|----------------|----------------|
|---------------|---------------|----------------|--------9-9-----|
|7-----7--------|5-----5--------|3-3-----3-------|----7-7-----9---|
|7(x2)-7--------|5(x2)-5--------|3-3(x2)-3(x2)---|8-8-------------|
|5-----5--------|3-----3--------|1-1-----1-------|----------------|
Verse 2 pt. 2
|--------------|--------------|------------|----------------------|
|--------------|--------------|------------|----------------------|
|..............|------------9-|------------|--------9h10p9--------|
|--------------|.......---7---|............|.....----------9h10p9-|
|7--7--7-7-7-7-|7--7--7-8-----|7--7--7-7-7-|7-7-7-8---------------|
|5--5--5-5-5-5-|5--5--5-------|5--5--5-5-5-|5-5-5-----------------|




|--------------|--------------|----------------|-----------------|
|--------------|--------------|----------------|-----------------|
|--------------|--------------|----------------|-----------------|
|..............|..............|................|...--------3-3-3-|
|7--7--7-5-5-5-|2--2--2-3-3-3-|7-7(x2)-7-5-5-5-|2--2(x2)-2-3-3-3-|
|5--5--5-3-3-3-|0--0--0-1-1-1-|5-5-----5-3-3-3-|0--0-----0-1-1-1-|


Verse 2 pt. 3
|------------------------------------|------------------------------------|
|------------------------------------|------------------------------------|
|------------------------------------|------------------------------------|
|------------------------------------|14p12h14p12h14p12-14p12h14p12h14p12-|
|15p14h15p14h15p14-15p14h15p14h15p14-|------------------------------------|
|------------------------------------|------------------------------------|
Chorus 2
|---------8-7-5-|---------5-3-0-|------------|--------------|
|---------------|---------------|------------|--------------|
|---------------|---------------|------------|--------------|
|7-----7--------|5-----5--------|3---3-------|7-----7-7-----|
|7(x2)-7--------|5(x2)-5--------|3---3(x5)---|7(x2)-7-7(x7)-|
|5-----5--------|3-----3--------|1---1-------|5-----5-5-----|

|---------8-7-5-|---------5-3-0-|----------------|
|---------------|---------------|----------------|
|---------------|---------------|----------------|
|7-----7--------|5-----5--------|3-3-----3-------|
|7(x2)-7--------|5(x2)-5--------|3-3(x2)-3(x2)---|
|5-----5--------|3-----3--------|1-1-----1-------|

|------------------|
|------------------|
|5-5-----5-----5-5-|
|5-5-----5-----5-5-|
|3-3(x2)-3(x2)-3-3-|
|------------------|
Chorus 3
|---------8-7-5-|---------5-3-0-|------------|--------------|
|---------------|---------------|------------|--------------|
|---------------|---------------|------------|--------------|
|7-----7--------|5-----5--------|3---3-------|7-----7-7-----|
|7(x2)-7--------|5(x2)-5--------|3---3(x5)---|7(x2)-7-7(x7)-|
|5-----5--------|3-----3--------|1---1-------|5-----5-5-----|

|---------8-7-5-|---------5-3-0-|----------------|----------------|
|---------------|---------------|----------------|----------------|
|---------------|---------------|----------------|--------9-9-----|
|7-----7--------|5-----5--------|3-3-----3-------|----7-7-----9---|
|7(x2)-7--------|5(x2)-5--------|3-3(x2)-3(x2)---|8-8-------------|
|5-----5--------|3-----3--------|1-1-----1-------|----------------|



Interlude 1
|---------------|---------------|---------------|---------------|
|---------------|---------------|---------------|---------------|
|12--12--12-----|12--12--12-----|14--14--14-----|12--12--12-----|
|-x---x---x-----|-x---x---x-----|-x---x---x-----|-x---x---x-----|
|10--10--10-----|10--10--10-----|12--12--12-----|10--10--10-----|
|---------------|---------------|---------------|---------------|

|---------------|---------------|-----------------|---------------------|
|---------------|---------------|-----------------|---------------------|
|12--12--12-----|12--12--12-----|14--14--14-14(x4)|14(x4)19(x2)21-21-21-|
|-x---x---x-----|-x---x---x-----|-x---x---x--x----|-x-----x-----x--x--x-|
|10--10--10-----|10--10--10-----|12--12--12-12----|12----17----19-19-19-|
|---------------|---------------|-----------------|---------------------|


Bridge 1
|----------------|----------------------|----------------------|--------------------|
|----------------|----------------------|----------------------|------8(x2)----8(x2)|
|----------------|10/12---12---12-12-12-|----------------------|--------------------|
|5/7---7---7-7-7-|-x--x----x----x--x--x-|10/12---12---12-12-12-|---7(x2)----7(x2)---|
|x-x---x---x-x-x-|-8/10---10---10-10-10-|-x--x----x----x--x--x-|8(x2)----7(x2)------|
|3/5---5---5-5-5-|----------------------|-8/10---10---10-10-10-|--------------------|(x2

Interlude 2
|-------------------------|    |-----------------------------|
|-------------------------|    |-----------------------------|
|.........................|    |-----------------------------|
|10-----9-----5---7---7/9-|    |7-----9-----10---14-14-14-14-|
|-0-0-0-0-0-0-0-0-0-0-0---|    |0-0-0-0-0-0--0-0--0--0--0--0-|
|-------------------------|(x4)|-----------------------------|


Chorus 4
|---------8-7-5-|---------5-3-0-|------------|--------------|
|---------------|---------------|------------|--------------|
|---------------|---------------|------------|--------------|
|7-----7--------|5-----5--------|3---3-------|7-----7-7-----|
|7(x2)-7--------|5(x2)-5--------|3---3(x5)---|7(x2)-7-7(x7)-|
|5-----5--------|3-----3--------|1---1-------|5-----5-5-----|

|---------8-7-5-|---------5-3-0-|----------------|
|---------------|---------------|----------------|
|---------------|---------------|----------------|
|7-----7--------|5-----5--------|3-3-----3-------|
|7(x2)-7--------|5(x2)-5--------|3-3(x2)-3(x2)---|
|5-----5--------|3-----3--------|1-1-----1-------|

|------------------|
|------------------|
|5-5-----5-----5-5-|
|5-5-----5-----5-5-|
|3-3(x2)-3(x2)-3-3-|
|------------------|
Chorus 5
|--------------|-----------------------|
|--------------|-----------------------|
|----------7-9-|12-----12-12-----12-12-|
|7(x2)-7---7-9-|12(x2)-12-12(x2)-12-12-|
|7-----7-------|-----------------------|
|5-----5-------|-----------------------|
|------------|--------------|
|------------|--------------|
|------------|--------------|
|3---3-------|7-----7-7-----|
|3---3(x5)---|7(x2)-7-7(x7)-|
|1---1-------|5-----5-5-----|

|---------8-7-5-|---------5-3-0-|----------------|----------------|
|---------------|---------------|----------------|----------------|
|---------------|---------------|----------------|--------9-9-----|
|7-----7--------|5-----5--------|3-3-----3-------|----7-7-----9---|
|7(x2)-7--------|5(x2)-5--------|3-3(x2)-3(x2)---|8-8-------------|
|5-----5--------|3-----3--------|1-1-----1-------|----------------|
Outro
|----------------|    |----------|
|----------------|    |----------|
|----------------|    |----------|
|................|    |----------|
|7(x2)-7-7(x2)---|    |----------|
|5-----5-5-------|(x3)|5/12------|
Tap to rate this tab
 
# A B C D E F G H I J K L M N O P Q R S T U V W X Y Z