Song name
# A B C D E F G H I J K L M N O P Q R S T U V W X Y Z

Afi - Days Of The Pheonix tab

AFI - Days of the Phoenix
Album : The Art of Drowning
Tabbed by:NIxz*

This is a brilliant song!!! The best one on the album I would say. Anyways enjoy:)



Intro :
E |----5-5--2-2-2--3-3--0-0-0----5-5--3-5-5-7-7-7-7-7--|
B |--0----0------0----0--------0----0-------0-0-0-0-0--|
G |----------------------------------------------------|
D |----------------------------------------------------|
A |----------------------------------------------------|
E |----------------------------------------------------|

E |------------------------------|
B |------------------------------|
G |---4-4-4--7-7-7---------------|
D |---4-4-4--7-7-7--5-5-5--7-7-7-|
A |---2-2-2--5-5-5--5-5-5--7-7-7-|<-Let Ring 
E |-----------------3-3-3--5-5-5-|

Verse
1st half no guitar

2nd half of Verse :
E |----------------------------------------------------------|
B |----------------------------------------------------------|
G |------------------------7-7-7-----------------------------|
D |---9-9-9--7-7-7--9-9-9--7-7-7--5-5-5--2-2-2--5-5-5--7-7-7-|  Play 2x
A |---9-9-9--7-7-7--9-9-9--5-5-5--5-5-5--2-2-2--5-5-5--7-7-7-|
E |---7-7-7--5-5-5--7-7-7---------3-3-3--0-0-0--3-3-3--5-5-5-|

E |-------------|
B |-------------|
G |-------------|
D |---5555555-7-|
A |---5555555-7-|<-Let Ring
E |---3333333-5-|

Chorus :
E |-----------------------|
B |-----------------------|
G |---4-4-4--7-7-7--------|  Play 4x
D |---4-4-4--7-7-7--5-5-5-|
A |---2-2-2--5-5-5--5-5-5-|
E |-----------------3-3-3-|

Replay 2nd half of Verse
Play Chorus again

Bridge :
E |---------------------|
B |-------------------3-|
G |-------0---------0---| Play 4x
D |-----4---4-----4-----|
A |---2---------0-------|
E |---------------------|

After this they do a really distorted thing.  You can figure that out yourself.

Replay the Chorus.
Play the second half of the intro as the outro.
Listen to the song for the exact rhythm and order.
Tap to rate this tab
# A B C D E F G H I J K L M N O P Q R S T U V W X Y Z