Song name
# A B C D E F G H I J K L M N O P Q R S T U V W X Y Z

Afi - Medicate tab

SOLO (Wah - wah pedal!)
Eb-/17-1717171717-------/19-191919191919--------13p0-12p0------------10----|
Bb---------------10-12-13---------------12-13-15---------10-12-13-10-13-15b|
Gb-------------------------------------------------------------------------|
Db-------------------------------------------------------------------------|
Ab-------------------------------------------------------------------------|
Eb-------------------------------------------------------------------------|
Not so sure about this part...
                           tap harmonic                      tap harmonic
Eb--------------------t17p5---------------------t20p8-------------------------------|
Bb----------------------------------------------------t20p8-------------------------|
Gb----------------------------------------------------------------------------------|
Db---------------------------t15p10p7h10t15p10p7h10--------10p7p0-10/14p0-7h10/14---|
Ab-17p12p8h12t17p12p8h12------------------------------------------------------------|
Eb----------------------------------------------------------------------------------|

Eb---t12p8p5h8t12p8p5h8t12p8p5h8t12-t15p8p5h8-t17~--|
Bb--------------------------------------------------|
Gb--------------------------------------------------|
Db--------------------------------------------------|
Ab--------------------------------------------------|
Eb--------------------------------------------------|

--------------------------------------------------------------------------|
--------------------------------------------------------------------------|
---t9p5p2h5-t9p5p2h5-t9p5p2h5-t7p5p2h5t-7p5p2h5t-7p5p2h5------------------|
--------------------------------------------------------------------------|
--------------------------------------------------------------------------|
--------------------------------------------------------------------------|

---------------------------------------------------------------------------|
---------------------------------------------------------------------------|
------------------5-7--------10p7h10p7/5-----------------------------------|
------------5-7--------------------------------7~--------------------------|
--/7-7-7-7-----------------------------------------------------------------|
---------------------------------------------------------------------------|
Tap to rate this tab
# A B C D E F G H I J K L M N O P Q R S T U V W X Y Z