Song name
# A B C D E F G H I J K L M N O P Q R S T U V W X Y Z

Afi - It Was Mine tab

-------------------------------------------------------------------------------
			     It Was Mine - AFI
-------------------------------------------------------------------------------
Tabbed by: Chris Parris (chrismetguitar)
Email: cparris05@gmail.com

Tuning: Half Step Down (Eb Ab Db Gb Bb Eb)

**********
This is my first tab, for the song "It Was Mine" off of AFI's Crash Love album.   I know
parts are missing, but I just learned the lead guitar part by ear, so if you need the
you'll have to figure it out. Note that the tuning is a half step down! I tried to tab 
number of times each part is played accurately, but as with every song, you gotta listen
the actual song to get the timing and speed right! Have fun and rate and comment!

Intro (with a little tremolo and chorus)
e|---------------------------------------------------------------------------|
B|---------------------------------------------------------------------------|
G|----7---------5------13~---13s14s13------7--------5------13~---------------|
D|------7---------6-----x~----x--x--x--------7--------6-----x~---------------|x3
A|--9---------7--------11~---11s12s13----9--------7--------11~---------------|
E|---------------------------------------------------------------------------|

e|---------------------------------------------------------------------------|
B|---------------------------------------------------------------------------|
G|----7---------5------13~---13s14s13------7--------5------13~---------------|
D|------7---------6-----x~----x--x--x--------7--------6-----x~--(hold)-------|
A|--9---------7--------11~---11s12s13----9--------7--------11~---------------|
E|---------------------------------------------------------------------------|

Pre-Chorus
e|---------------------------------------------------------------------------|
B|---------------------------------------------------------------------------|
G|--13-----------9------11------12------14------16---------------------------|
D|---x-(x4)------x-(x3)--x-(x3)--x-(x3)--x-(x3)--x-(x3)----------------------|
A|--11-----------7-------9------10------12------14---------------------------|
E|---------------------------------------------------------------------------|

Chorus
e|---------------------------------------------------------------------------|
B|---------------------------------------------------------------------------|
G|--17------16------12s14---14--------12-------------------------------------|
D|---x-(x4)--x-(x4)--x--x----x-(x4)----x-(x4)--------------------------------|x3
A|--15------14------10s12---12--------10-------------------------------------|
E|---------------------------------------------------------------------------|

e|---------------------------------------------------------------------------|
B|---------------------------------------------------------------------------|
G|--12~----------------------------------------------------------------------|
D|---x~----------------------------------------------------------------------|
A|--10~----------------------------------------------------------------------|
E|---------------------------------------------------------------------------|

Verse (tremolo/chorus again)
e|---------------------------------------------------------------------------|
B|---------------------------------------------------------------------------|
G|----7---------5------13~---13s14s13------7--------5------13~---------------|
D|------7---------6-----x~----x--x--x--------7--------6-----x~---------------|x3
A|--9---------7--------11~---11s12s13----9--------7--------11~---------------|
E|---------------------------------------------------------------------------|

e|---------------------------------------------------------------------------|
B|---------------------------------------------------------------------------|
G|----7---------5------13~---13s14s13------7--------5------13~---------------|
D|------7---------6-----x~----x--x--x--------7--------6-----x~--(hold)-------|
A|--9---------7--------11~---11s12s13----9--------7--------11~---------------|
E|---------------------------------------------------------------------------|

Pre-Chorus
e|---------------------------------------------------------------------------|
B|---------------------------------------------------------------------------|
G|--13-----------9------11------12------14------16---------------------------|
D|---x-(x4)------x-(x3)--x-(x3)--x-(x3)--x-(x3)--x-(x3)----------------------|
A|--11-----------7-------9------10------12------14---------------------------|
E|---------------------------------------------------------------------------|

Chorus
e|---------------------------------------------------------------------------|
B|---------------------------------------------------------------------------|
G|--17------16------12s14---14--------12-------------------------------------|
D|---x-(x4)--x-(x4)--x--x----x-(x4)----x-(x4)--------------------------------|x3
A|--15------14------10s12---12--------10-------------------------------------|
E|---------------------------------------------------------------------------|

e|---------------------------------------------------------------------------|
B|---------------------------------------------------------------------------|
G|--12~----------------------------------------------------------------------|
D|---x~----------------------------------------------------------------------|
A|--10~----------------------------------------------------------------------|
E|---------------------------------------------------------------------------|

Bridge
e|---------------------------------------------------------------------------|
B|--16----17----14----11-----------------------------------------------------|
G|---x-----x-----x-----x-----------------------------------------------------|
D|--14----15----12-----9-----------------------------------------------------|x2
A|---------------------------------------------------------------------------|
E|---------------------------------------------------------------------------|

Verse (tremolo/chorus)
e|---------------------------------------------------------------------------|
B|---------------------------------------------------------------------------|
G|----7---------5------13~---13s14s13------7--------5------13~---------------|
D|------7---------6-----x~----x--x--x--------7--------6-----x~--(hold)-------|
A|--9---------7--------11~---11s12s13----9--------7--------11~---------------|
E|---------------------------------------------------------------------------|

Chorus
e|---------------------------------------------------------------------------|
B|---------------------------------------------------------------------------|
G|--17------16------12s14---14--------12-------------------------------------|
D|---x-(x4)--x-(x4)--x--x----x-(x4)----x-(x4)--------------------------------|x3
A|--15------14------10s12---12--------10-------------------------------------|
E|---------------------------------------------------------------------------|

Solo/Outro (tremolo picking for the first part)
e|---------------------------------------------------------------------------|
B|---------------------------------------------------------------------------|
G|--16--------17--------14--------12-----------------------------------------|
D|---x-(x12)---x-(x12)---x-(x12)---x-(x12)-----------------------------------|
A|--14--------15--------12--------10-----------------------------------------|
E|---------------------------------------------------------------------------|

e|---------------------------------------------------------------------------|
B|---------------------------------------------------------------------------|
G|--11s12--12------12s14s11--11-------11s9---9----------16s17~~-----14~------|
D|---x--x---x-(x7)--x--x--x---x-(x8)---x-x---x-(x8)------x--x~~------x~------|
A|---9s10--10------10s12s-9---9--------9s7---7----------14s15~~-----12~------|
E|---------------------------------------------------------------------------|

************************************

| s   slide up
| \   slide down
| h   hammer-on
| p   pull-off
| ~   vibrato
| +   harmonic
| x   Mute note
| b   Bend
| pb  Pre-bend
| br  Bend release
| pbr Pre-bend release
| brb Bend release bend

************************************
Tap to rate this tab
 
# A B C D E F G H I J K L M N O P Q R S T U V W X Y Z