Song name
# A B C D E F G H I J K L M N O P Q R S T U V W X Y Z

Afi - Days Of The Pheonix tab

-------------------------------------------------------------------------------
                          THE DAYS OF THE PHOENIX - AFI
-------------------------------------------------------------------------------

Intro  x1
e |----5---5---2---2---2---3---3p2-0---0---0---5---5---3---3---7---7---7---7---|
B |--0---0---0---0---0---0---0-------0---0---0---0---0---0---0---0---0---0-----|
G |----------------------------------------------------------------------------|
D |----------------------------------------------------------------------------|
A |----------------------------------------------------------------------------|
E |----------------------------------------------------------------------------|

Solo  x1 GUITAR 1
e |-------------2--3--5-----2--3--5-----3--2------|
B |-0--3--2--3-----------3-----------3--------3---|
G |-----------------------------------------------|
D |-----------------------------------------------|
A |-----------------------------------------------|
E |-----------------------------------------------|

Solo Background  x2  GUITAR 2
e |----------------|------|
B |----------------|------|
G |----4--7--------|--4---|
D |----4--7--5--7--|------| <---play after 2nd time through left side
A |----2--5--5--7--|--2---|
E |----------3--5--|------|

Single Chord, Before Verse with Guitar
e |-----|
B |-----|
G |-----|
D |--7--|
A |--7--|
E |--5--|

Verse  x1
e |-----------------------------------------------------|
B |-----------------------------------------------------|
G |----4-----4--7-----------4-----4--7------------------|
D |----4--7--4--7--5--2--7--4--7--4--7--5--2--5-5-5--7--|
A |----2--7--2--5--5--2--7--2--7--2--5--5--2--5-5-5--7--|
E |-------5--------3--0--5-----5--------3--0--3-3-3--5--|
                                              PM---|

Chorus  x4
e |-----------------------------|------|
B |-------3-------7-------------|------|
G |----4----4--7----7-----4-----|--7---|
D |----4-------7-------5----5---|--7---| <---play after 4th time through 
left side
A |----2-------5-------5--------|--5---|
E |--------------------3--------|------|

Intro  x1

Verse  x1

Chorus  x4

Bridge x? (Goes on underneath second guitar, makes difficult to hear)
e |---------------------------|
B |------------------------3--|
G |--------0------------0-----|
D |-----4-----4------4--------| <---GUITAR 1
A |--2------------2-----------|
E |---------------------------|

Bridge  x2  GUITAR 2
e |------------------3-3-3-3-2-2-2-2--------------------------------------|
B |----------3-3-2-2-0-0-0-0-0-0-0-0----------3-3-5-5-2-2-2-3-3-3-2-2-2---|
G |--4-4-4-4-4-4-4-4-4-4-4-4-4-4-4-4--4-4-4-4-4-4-4-4-4-4-4-4-4-4-4-4-4---|
D |-----------------------------------------------------------------------|
A |-----------------------------------------------------------------------|
E |-----------------------------------------------------------------------|

Then
e |------------|
B |------------|
G |------------|
D |--5-5-5--7--|
A |--5-5-5--7--|
E |--3-3-5--5--|
     PM----|

Chorus  x4

Lead Out Pt. 1  x1
e |----5---5---2---2---2---3---3---2--0---0---0---5---5---3---5---7---|
B |--0---0---0---0---0---0---0---0--0---0---0---0---0---0---0---0-----|
G |-------------------------------------------------------------------|
D |-------------------------------------------------------------------|
A |-------------------------------------------------------------------|
E |-------------------------------------------------------------------|

Lead Out Pt. 2  x1  GUITAR 1
e |-------------3--2----------------2--5--3--2-------------3-2------|
B |-0--3--2--3--------3---3-3-3-3-3--------------3-3-3-3-3-----3-2--|
G |-----------------------------------------------------------------|
D |-----------------------------------------------------------------|
A |-----------------------------------------------------------------|
E |-----------------------------------------------------------------|

Lead Out Pt. 2  x2  GUITAR 2
e |----------------|
B |----------------|
G |----4--7--------|
D |----4--7--5--7--|
A |----2--5--5--7--|
E |----------3--5--|

End On
e |-----|
B |-----|
G |--4--|
D |--4--|
A |--2--|
E |-----|

======================================================================
Tap to rate this tab
# A B C D E F G H I J K L M N O P Q R S T U V W X Y Z