Afi - Love Like Winter tab

-------------------------------------------------------------------------------
			     Love Like Winter - Afi
-------------------------------------------------------------------------------
Tabbed by:Mitesh
Email:shetim@gmail.com

Tuning:Eb standard


Verse

eb|------------------------------------------------------------------|
Bb|------------------------------------------------------------------|
Gb|------------------------------------------------------------------|
Db|------------------------------------------------------------------|
Ab|---------------------------------22222222222222222222222222222222-|
Eb|33333333333333333333333333333333----------------------------------|

eb|------------------------------------------------------------------|
Bb|------------------------------------------------------------------|
Gb|------------------------------------------------------------------|
Db|------------------------------------------------------------------|
Ab|------------------------------------------------------------------|
Eb|33333333333333333333333333333333-55555555555555555555555555555555-|


Chorus

e|-----------------------------------|	    
B|-----------------------------------|	    
G|---------------------------7-------|     
D|-9-9-9-9-5-5-5-5-7--------7---7----| x2  
A|-9-9-9-9-5-5-5-5-7--------5---7----|     
E|-7-7-7-7-3-3-3-3-5------------5----|     

e|------------------------------------|
B|------------------------------------|
G|-------------------------7----------|
D|-9-9-----5-5-----7-7-----7---7------| x2
A|-9-9-----5-5-----7-7-----5---7------|
E|-7-7-----3-3-----5-5---------5------|

Verse

eb|------------------------------------------------------------------|
Bb|------------------------------------------------------------------|
Gb|------------------------------------------------------------------|
Db|------------------------------------------------------------------|
Ab|---------------------------------22222222222222222222222222222222-|
Eb|33333333333333333333333333333333----------------------------------|

eb|------------------------------------------------------------------|
Bb|------------------------------------------------------------------|
Gb|------------------------------------------------------------------|
Db|------------------------------------------------------------------|
Ab|------------------------------------------------------------------|
Eb|33333333333333333333333333333333-55555555555555555555555555555555-|

eb|------------------------------------------------------------------|
Bb|------------------------------------------------------------------|
Gb|------------------------------------------------------------------|
Db|------------------------------------------------------------------|
Ab|---------------------------------22222222222222222222222222222222-|
Eb|3-----------------------------------------------------------------|

eb|------------------------------------------------------------------|
Bb|------------------------------------------------------------------|
Gb|------------------------------------------------------------------|
Db|------------------------------------------------------------------|
Ab|------------------------------------------------------------------|
Eb|33333333333333333333333333333333----------------------------------|


Chorus

e|-----------------------------------|	    
B|-----------------------------------|	    
G|---------------------------7-------|     
D|-9-9-9-9-5-5-5-5-7--------7---7----| x2  
A|-9-9-9-9-5-5-5-5-7--------5---7----|     
E|-7-7-7-7-3-3-3-3-5------------5----|     

e|------------------------------------|
B|------------------------------------|
G|-------------------------7----------|
D|-9-9-----5-5-----7-7-----7---7------| x2
A|-9-9-----5-5-----7-7-----5---7------|
E|-7-7-----3-3-----5-5---------5------|



Bridge

  			 		  clean palm mute 
    hold out a distorted B	          (a quiet backround sound)

eb|----------------------------------|	
Bb|----------------------------------|  
Gb|----------------------------------|	
Db|-9--------------------------------|	 
Ab|----------------------------------|	
Eb|----------------------------------|  

eb|--------------------------------3-|
Bb|--00000000------------------------|
Gb|--76667444------------------------|
Db|----------------------------------|
Ab|----------------------------------|
Eb|----------------------------------|
 
   palm muted buildup

eb|----------------------------------|
Bb|----------------------------------|
Gb|----------------------------------|
Db|-4-4-4-4-4-4-4-4-4-4-4-4-4-4-4----|
Ab|-4-4-4-4-4-4-4-4-4-4-4-4-4-4-4----|
Eb|-2-2-2-2-2-2-2-2-2-2-2-2-2-2-2----|


Chorus

e|-----------------------------------|	    
B|-----------------------------------|	    
G|---------------------------7-------|     
D|-9-9-9-9-5-5-5-5-7--------7---7----| x2  
A|-9-9-9-9-5-5-5-5-7--------5---7----|     
E|-7-7-7-7-3-3-3-3-5------------5----|     

e|------------------------------------|
B|------------------------------------|
G|-------------------------7----------|
D|-9-9-----5-5-----7-7-----7---7------| x2
A|-9-9-----5-5-----7-7-----5---7------|
E|-7-7-----3-3-----5-5---------5------|





************************************
Enjoy!

please rate

************************************
Tap to rate this tab
 
# A B C D E F G H I J K L M N O P Q R S T U V W X Y Z