Song name
# A B C D E F G H I J K L M N O P Q R S T U V W X Y Z

Afi - Torch Song tab

“Torch Song” By AFI
Holy Geepers Batman, it’s Torch Song,
tuned down to Eb (flat

INTRO A
||-----------7-8----7----4-4-----7-8--11--||
||----5------X-X----X----X-X-----X-X---X--||
||-----------X-X----X----1-1-----X-X---8--||
||--2--------6-7----6------------6-7------||
||----------------------------------------||
||----------------------------------------||


INTRO B, guitar one
||-77777--88888--77777--44444-|
||-55555--55555--55555--55555-|
||----------------------------|
||----------------------------|
||----------------------------|
||----------------------------|


INTRO B, guitar one
------------12-12-12-12--------------15-15-15-15-|
12-12-12-12-12-12-12-12--13-13-13-13-13-13-13-13-|
13-13-13-13-13-13-13-13--14-14-14-14-14-14-14-14-|
-------------------------------------------------|
-------------------------------------------------|
-------------------------------------------------|


INTRO B, guitar one
10-10-10-10-10-10-10-10-10-11-11-11-11-11-11-11-11-11---|
-x--x--x--x--x--x--x--x--x--x--x--x--x--x--x--x--x--x---|
-7--7--7--7--7--7--7--7--7--8--8--8--8--8--8--8--8--8---|
--------------------------------------------------------|
--------------------------------------------------------|
--------------------------------------------------------|


INTRO B, guitar two
-----------------------------------------------------------|
-----------------------------------------------------------|
44444-55555-44444-11111--44444-55555-----------------------|
66666-77777-66666-22222--66666-77777-9999999999-9999999999-|
77777-77777-77777-xxxxx--77777-77777-5555555555-6666666666-|
00000000000000000000000--00000000000-0000000000-0000000000-|



GUITAR ONE
INTRO SOLO
-12----8----10----10----8----8-----8----8----8----8----8----8----|
----10---10----10----10---10---10----12---12---12---10---10---10-|
-----------------------------------------------------------------|
-----------------------------------------------------------------|
-----------------------------------------------------------------|
-----------------------------------------------------------------|


GUITAR ONE
INTRO SOLO
-12----8----10----10----8----8-----8----8----8---------------7^8-----|
----10---10----10----10---10---10----12---12---12--10---8^10------10-|
---------------------------------------------------------------------|
---------------------------------------------------------------------|
---------------------------------------------------------------------|
---------------------------------------------------------------------|


GUITAR ONE
INTRO SOLO
-----------12-12------------8----8-----7^8^7^8^7----7-8----7-8----7-8-5-|
--10-10-------------12--10----10---10-------------8-----x8------5-------|
--------10-------12---12------------------------------------------------|
------------------------------------------------------------------------|
------------------------------------------------------------------------|
------------------------------------------------------------------------|


GUITAR TWO
INTRO, UNDER SOLO
||--------------------------------------------------------|
||--------------------------------------------------------|
||-2-22-10-10-10------------PM----2-22-10-10-10-----------|
||-2-22-10-10-10-5-55-7-7\--===---2-22-10-10-10-5-55-7-77-|
||-0-00--8--8--8-5-55-7-7\--3-3---0-00--8--8--8-5-55-7-77-|
||---------------3-33-5-5\--1-1-----------------3-33-5-55-|


GUITAR TWO
INTRO, UNDER SOLO
-------------------------------------------------------||
-------------------------------------------------------||
-2-22-10-10-10------------PM---2-22-10-10-10-----------||
-2-22-10-10-10-5-55-7-7\--===--2-22-10-10-10--5-55-222-||
-0-00--8--8--8-5-55-7-7\--3-3--0-00--8--8--8--5-55-222-||
---------------3-33-5-5\--1-1-----------------3-33-000-||


VERSE PART
GUITAR ONE, REPEAT ONCE
||--------------------------||
||::----PM-------------5--::||
||----===========----5------||
||----22222222222--3--------||
||::--00000000000---------::||
||--------------------------||



VERSE PART
GUITAR ONE
||-------------------------------------||
||--PM---------------------------------||
||--===-----===-----===----------------||
||--222-===-000-===-222-===-000--------||
||--000-555-000-333-000-555-000--------||
||------333-----111-----333-------1----||


VERSE PART
GUITAR ONE, REPEAT ONCE
||--------------------------||
||::----PM-------------5--::||
||----===========----5------||
||----22222222222--3--------||
||::--00000000000---------::||
||--------------------------||


VERSE PART b
GUITAR ONE
||----------------------------------------------------------||
||--PM----------------------3333----------------------------||
||--===-----===-----===-----2222------------------44444-----||
||--222-===-000-===-222-===-0000-333----------555555555-----||
||--000-555-000-333-000-555-0000-333------------------------||
||------333-----111-----333------111-33333333---------------||


VERSE PART b
GUITAR TWO
---------------======------------------------------------|
-======-======-666666-======-======-======-======-====---|
-999999-777777--------999999-999999-777777-555555-444444-|
---------------------------------------------------------|
---------------------------------------------------------|
---------------------------------------------------------|


VERSE PART
GUITAR TWO
-------------------------------------------------||
------------------------5^3-5^3-5^3-5^3-5^3-5^3--||
5^4-5^4-5^4-5^4-5^4-5^4--------------------------||
-------------------------------------------------||
-------------------------------------------------||
-------------------------------------------------||


CHORUS
||-----------------------------000000-----------------------------------|
||--1-11-0--------0------------111111--1-11--0------0-10-10-10-10-10-10-|
||--2-22-4--------4------------222222--2-22--4------4-10-10-10-10-10-10-|
||--2-22----5-55-----3-XXXX-3--222222--2-22-----555---10-10-10-10-10-10-|
||--0-000---5-55-----3-XXXX-3--000000--0-00-0---555----8--8--8--8--8--8-|
||----------3-333----1-XXXX-1-------------------3333---8--8--8--8--8--8-|


CHORUS.            CHORUS OUTRO.
--------------||  ||-----bend------------------------||
--------------||  ||---10^---------------------------||
------99--9---||  ||---14----------------------------||
00-77-----9---||  ||---Quick-rest-for entire band----||
----------7---||  ||---underneath--------------------||
--------------||  ||---------------------------------||


VERSE PART
GUITAR ONE, REPEAT ONCE
||--------------------------||
||::----PM-------------5--::||
||----===========----5------||
||----22222222222--3--------||
||::--00000000000---------::||
||--------------------------||

VERSE PART
GUITAR ONE
||-------------------------------------||
||--PM---------------------------------||
||--===-----===-----===-----===--------||
||--222-===-000-===-222-===-000--------||
||--000-555-000-333-000-555-000--------||
||------333-----111-----333-------1----||

VERSE PART
GUITAR ONE
||--------------------------||
||::----PM-------------5--::||
||----===========----5------||
||----22222222222--3--------||
||::--00000000000---------::||
||--------------------------||

VERSE PART
GUITAR ONE
||---------------------------||
||----PM-------------5^6^5---||
||--===========----5---------||
||--22222222222--3-----------||
||--00000000000--------------||
||---------------------------||


VERSE PART
VERSE PART b
GUITAR ONE
||----------------------------------------------------------||
||--PM----------------------3333----------------------------||
||--===-----===-----===-----2222------------------44444-----||
||--222-===-000-===-222-===-0000-333----------555555555-----||
||--000-555-000-333-000-555-0000-333------------------------||
||------333-----111-----333------111-33333333---------------||


VERSE PART b
GUITAR TWO
---------------======------------------------------------|
-======-======-666666-======-======-======-======-====---|
-999999-777777--------999999-999999-777777-555555-444444-|
---------------------------------------------------------|
---------------------------------------------------------|
---------------------------------------------------------|


VERSE PART
GUITAR TWO
-------------------------------------------------||
------------------------5^3-5^3-5^3-5^3-5^3-5^3--||
5^4-5^4-5^4-5^4-5^4-5^4--------------------------||
-------------------------------------------------||
-------------------------------------------------||
-------------------------------------------------||

CHORUS
||-----------------------------000000-----------------------------------|
||--1-11-0--------0------------111111--1-11--0------0-10-10-10-10-10-10-|
||--2-22-4--------4------------222222--2-22--4------4-10-10-10-10-10-10-|
||--2-22----5-55-----3-XXXX-3--222222--2-22-----555---10-10-10-10-10-10-|
||--0-000---5-55-----3-XXXX-3--000000--0-00-0---555----8--8--8--8--8--8-|
||----------3-333----1-XXXX-1-------------------3333---8--8--8--8--8--8-|


CHORUS
-----------|
5-55-555-5-|
5-55-555-5-|
5-55-555-5-|
3-33-333-3-|
3-33-333-3-|


CHORUS
||-----------------------------000000-----------------------------------|
||--1-11-0--------0------------111111--1-11--0------0-10-10-10-10-10-10-|
||--2-22-4--------4------------222222--2-22--4------4-10-10-10-10-10-10-|
||--2-22----5-55-----3-XXXX-3--222222--2-22-----555---10-10-10-10-10-10-|
||--0-000---5-55-----3-XXXX-3--000000--0-00-0---555----8--8--8--8--8--8-|
||----------3-333----1-XXXX-1-------------------3333---8--8--8--8--8--8-|


CHORUS.              Pre-bridge, Guitar One
------------7777-||  --00000--------------------------------|
------------8888-||  --xxxxx-----------------12-12-12-12-12-|
------99--9-9999-||  --55555-10-10-10-10-10--12-12-12-12-12-|
00-77-----9------||  --77777--7--7--7--7--7--12-12-12-12-12-|
----------7------||  --00000--0--0--0--0--0---0--0--0--0--0-|
-----------------||  ---------------------------------------|


Pre-bridge, Guitar One
---------------00000----------------------------------------------|
10-10-10-10-10-xxxxx----------------12-12-12-12-12-13-13-13-13-13-|
10-10-10-10-10-55555-10-10-10-10-10-12-12-12-12-12-13-13-13-13-13-|
10-10-10-10-10-77777--7--7--7--7--7-12-12-12-12-12-13-13-13-13-13-|
-0--0--0--0--0-00000--0--0--0--0--0--0--0--0--0--0--0--0--0--0--0-|
------------------------------------------------------------------|


Pre-bridge, Guitar Two Fill-In Riff A
--77-88-10-10-12--|
--XX-XX--X--X--X--|
--44-55--7--7--9--|
------------------|
------------------|
------------------|


Pre-bridge, Guitar Two Fill-In Riff B
--12---------------------|
--16^LONG-BEND-----------|
-----TO-RING-OUT---------|
-----INTO-NEXT-PART------|
-------------------------|
-------------------------|


Bridge
||--------------------------------------------------------------|
||:-------13-13-------13-13-------------------------------------|
||--12^14-14-14-12^14-14-14-------------------------------------|
||--12^14-14-14-12^14-14-14-10/12-12-12-10/12-12-12-5/777-5/777-|
||:-12-12-12-12-12-12-12-12--8/10-10-10--8/10-10-10-3/555-3/555-|
||--------------------------------------------------------------|


Bridge
--------------------------------|| ||-----------------||
-------------------------------:|| ||--(10)-let-ring--||
----------12-12----------12-12--|| ||----over-next----||
----10-10----------10-10--------|| ||------part-------||
-88-------------77-------------:|| ||-----------------||
--------------------------------|| ||-----------------||



Guitar One
Interlude (play three tiems)
||---------------------------------|| --------------------------------|
||::--pm-------------------------::|| --------------------------------|
||----==----=----=---=-------------|| -----==----==----9-999999-(9)---|
||----10-==-9-==-5-=-7-=-7^9^10----|| --==-10-==-12-==----------------|
||::-----00---00---0---0---------::|| --00----00----00----------------|
||---------------------------------|| --------------------------------|



Guitar Two
Interlude
||--5--------5^7^8-8------8/10-10-----10\7-7-------7\5-5-----------||
||-----------------------------------------------------------------||
||-----------------------------------------------------------------||
||-----------------------------------------------------------------||
||-----------------------------------------------------------------||
||-----------------------------------------------------------------||



CHORUS
||-----------------------------000000-----------------------------------|
||--1-11-0--------0------------111111--1-11--0------0-10-10-10-10-10-10-|
||--2-22-4--------4------------222222--2-22--4------4-10-10-10-10-10-10-|
||--2-22----5-55-----3-XXXX-3--222222--2-22-----555---10-10-10-10-10-10-|
||--0-00----5-55-----3-XXXX-3--000000--0-00-----555----8--8--8--8--8--8-|
||----------3-33-----1-XXXX-1-------------------333----8--8--8--8--8--8-|


CHORUS
-----------|
5-55-555-5-|
5-55-555-5-|
5-55-555-5-|
3-33-333-3-|
3-33-333-3-|


CHORUS
||-----------------------------000000-----------------------------------|
||--1-11-0--------0------------111111--1-11--0------0-10-10-10-10-10-10-|
||--2-22-4--------4------------222222--2-22--4------4-10-10-10-10-10-10-|
||--2-22----5-55-----3-XXXX-3--222222--2-22-----555---10-10-10-10-10-10-|
||--0-00----5-55-----3-XXXX-3--000000--0-00-----555----8--8--8--8--8--8-|
||----------3-33-----1-XXXX-1-------------------333----8--8--8--8--8--8-|



CHORUS.
------------7777-||
------------8888-||
------99--9-9999-||
00-77-----9------||
----------7------||
-----------------||


OUTRO
||--pm------------------------------------------||
||--======---=======--=======-------------------||
||--2-2-22---22-2-22--22-2-22-------------------||
||--2-2-22---22-2-22--22-2-22------0/2----------||
||--0-0-00---00-0-00--00-0-00------0(0)---------||
||----------------------------------------------||
Tap to rate this tab
 
# A B C D E F G H I J K L M N O P Q R S T U V W X Y Z