Song name
# A B C D E F G H I J K L M N O P Q R S T U V W X Y Z

Afi - Reivers Music tab

A-fire-inside
Reiver's Music
{Tuned To Eb}

Okay, the reason I think this song is in E flat well,
for one, Jade is known for that kinda tuning,
and two, if you listen closely on the third measure,
ALSO you can hear the low rumbling of the fat open E string
in the third measure in the verse,
when he does the first palm mute of the tune.

So yeah, i'm gonna be different and put this one in Eb.
So here it is, for all you E-flatters out there, enjoy…



VERSE
-------------------------------------------------------------------|
-------------------------------------------------------------------|
-999999999------7---7--999999999-5-4--999999999------7---7------99-|
-999999999----9--------999999999-5-5--999999999-----9------===9999-|
-777777777-10-----9----777777777-3-5--777777777--10----9---7777777-|
-777777777-------------777777777-3-3--777777777------------0000000-|


VERSE
-----------------------------------------------------------|
-----------------------------------------------------------|
-999999999------7---7--999999999-5-4--999999999------7---7-|
-999999999----9--------999999999-5-5--999999999----9-------|
-777777777-10-----9----777777777-3-5--777777777-10-----9---|
-777777777-------------777777777-3-3--777777777------------|



VERSE
---------------------------7--------------|
---------------------------7--------------|
77-7-99-9-11-11-11-14-14---8-----12-------|
XX-X-XX-X--X--X--X--X--X---9-----12-12-12-|
55-5-77-7--9--9--9-12-12-X-9-----10-12-12-|
-------------------------X-7-----10-10-10-|


CHORUS
-----------------------------------------------------------------------|
-----------------------------------------------------------------------|
999999999999----12-12-12-12-12-12--------------------------------------|
999999999999-11-12-12-12-12-12-12-12-12-12-12-12-12-101010101010101010-|
777777777777--9-10-10-10-10-10-10-12-12-12-12-12-12-101010101010101010-|
777777777777----10-10-10-10-10-10-10-10-10-10-10-10--8-8-8-8-8-8-8-8-8-|


CHORUS
-------------------------------|
-------------------------------|
12-----------------14-14-14-14-|
12-12-12-12-12-12--14-14-14-14-|
10-10-10-10-10-10--12-12-12-12-|
---10-10-10-10-10--------------|


CHORUS
-----------------------------------------------------------------------|
-----------------------------------------------------------------------|
999999999999----12-12-12-12-12-12--------------------------------------|
999999999999-11-12-12-12-12-12-12-12-12-12-12-12-12-101010101010101010-|
777777777777--9-10-10-10-10-10-10-12-12-12-12-12-12-101010101010101010-|
777777777777----10-10-10-10-10-10-10-10-10-10-10-10--8-8-8-8-8-8-8-8-8-|


CHORUS
---------------------------------7-7-5-5-3------------------------||
----------------------------------8---7--5------------------------||
PM-----------------------------(9)--------------------------------||
=============---------999999999(9)LET-RING------------------------||
XXXXXXXXXXXXX-99999999999999999(7)-UNDER--------------------------||
7777777777777-77777777777777777(7)--------------------------------||


VERSE                                                       *guitar2
------------------------------------------------------------*12-^---|
-------------------------------------------------------------16^-^--|
-999999999------7---7-999999999-5-4-999999999----7---7-pm---99------|bend
-999999999----9-------999999999-5-5-999999999---9------===9999------|
-777777777-10-----9---777777777-3-5-777777777-10---9---7777777------|
-777777777------------777777777-3-3-777777777----------0000000------|



VERSE
-----------------------------------------------------------|
-----------------------------------------------------------|
-999999999------7---7--999999999-5-4--999999999------7---7-|
-999999999----9--------999999999-5-5--999999999----9-------|
-777777777-10-----9----777777777-3-5--777777777-10-----9---|
-777777777-------------777777777-3-3--777777777------------|



VERSE
---------------------------7--------------|
---------------------------7--------------|
77-7-99-9-11-11-11-14-14---8-----12-------|
XX-X-XX-X--X--X--X--X--X---9-----12-12-12-|
55-5-77-7--9--9--9-12-12-X-9-----10-12-12-|
-------------------------X-7-----10-10-10-|


CHORUS
-----------------------------------------------------------------------|
-----------------------------------------------------------------------|
999999999999----12-12-12-12-12-12--------------------------------------|
999999999999-11-12-12-12-12-12-12-12-12-12-12-12-12-101010101010101010-|
777777777777--9-10-10-10-10-10-10-12-12-12-12-12-12-101010101010101010-|
777777777777----10-10-10-10-10-10-10-10-10-10-10-10--8-8-8-8-8-8-8-8-8-|


CHORUS
-------------------------------|
-------------------------------|
12-----------------14-14-14-14-|
12-12-12-12-12-12--14-14-14-14-|
10-10-10-10-10-10--12-12-12-12-|
---10-10-10-10-10--------------|


CHORUS
-----------------------------------------------------------------------|
-----------------------------------------------------------------------|
999999999999----12-12-12-12-12-12--------------------------------------|
999999999999-11-12-12-12-12-12-12-12-12-12-12-12-12-101010101010101010-|
777777777777--9-10-10-10-10-10-10-12-12-12-12-12-12-101010101010101010-|
777777777777----10-10-10-10-10-10-10-10-10-10-10-10--8-8-8-8-8-8-8-8-8-|


CHORUS
---------------|
---------------|
--12-12----1---|4x
--12-12----1---|4x
1010-10-12-1---|2x
1010-10-12-1---|2x


CHORUS
-----------------------------------------------------------------------|
-----------------------------------------------------------------------|
999999999999----12-12-12-12-12-12--------------------------------------|
999999999999-11-12-12-12-12-12-12-12-12-12-12-12-12-101010101010101010-|
777777777777--9-10-10-10-10-10-10-12-12-12-12-12-12-101010101010101010-|
777777777777----10-10-10-10-10-10-10-10-10-10-10-10--8-8-8-8-8-8-8-8-8-|


CHORUS
----------------------------------|
----------------------------------|
12-12-12-12-12-12--14-14-14-14-14-|
12-12-12-12-12-12--14-14-14-14-14-|
10-10-10-10-10-10--12-12-12-12-12-|
10-10-10-10-10-10-----------------|


CHORUS
-----------------------------------------------------------------------|
-----------------------------------------------------------------------|
999999999999----12-12-12-12-12-12--------------------------------------|
999999999999-11-12-12-12-12-12-12-12-12-12-12-12-12-101010101010101010-|
777777777777--9-10-10-10-10-10-10-12-12-12-12-12-12-101010101010101010-|
777777777777----10-10-10-10-10-10-10-10-10-10-10-10--8-8-8-8-8-8-8-8-8-|


CHORUS
---------------------------------7-7-5-5-3------------------------||
----------------------------------8---7--5------------------------||
PM-----------------------------(9)--------------------------------||
=============---------999999999(9)LET-RING------------------------||
XXXXXXXXXXXXX-99999999999999999(7)-UNDER--------------------------||
7777777777777-77777777777777777(7)--------------------------------||


bridge
--3----3----3---3---3------------3---3---3------------7---7---7-------|
-5-5--5-5--5-5-5-5-5-5------------3---3---3------------8---8---8------|
-----------------------------12-4--4---4---4-------9-9--9---9---9-55--|
-----------------------10-10-12--------------12-12-9--------------555-|
-----------------------10-10-10--------------12-12-7--------------335-|
------------------------8--8-10--------------10-10-7--------------333-|


bridge
---3---3---3-----------7---7---7----------3---3---3---------7--7--7---|
----3---3---3-----------8---8---8----------3---3---3---------8--8--8--|
-4---4---4---4-----9-9---9---9---9-55---4---4---4---4-----99--9--9--9-|
-------------------9---------------55-5-------------------9-----------|
----------------55-7---------------33-5----------------55-7-----------|
----------------22-7---------------33-3----------------22-7-----------|


bridge
---------3---3---3------------------777777777----------------|
----------3---3---3-----------------777777777----------------|
--55---4---4---4---4--------------7-777777777-------12-------|
--55-5------------------7--7-9-10-x-999999999-------12-12-12-|
--33-5---------------55-7--x-x--x-5-999999999-------10-12-12-|
--33-3---------------22-5--5-7--8---777777777-------10-10-10-|


CHORUS
-----------------------------------------------------------------------|
-----------------------------------------------------------------------|
999999999999----12-12-12-12-12-12--------------------------------------|
999999999999-11-12-12-12-12-12-12-12-12-12-12-12-12-101010101010101010-|
777777777777--9-10-10-10-10-10-10-12-12-12-12-12-12-101010101010101010-|
777777777777----10-10-10-10-10-10-10-10-10-10-10-10--8-8-8-8-8-8-8-8-8-|


CHORUS
----------------------------------|
----------------------------------|
12-12-12-12-12-12--14-14-14-14-14-|
12-12-12-12-12-12--14-14-14-14-14-|
10-10-10-10-10-10--12-12-12-12-12-|
10-10-10-10-10-10-----------------|


CHORUS
-----------------------------------------------------------------------|
-----------------------------------------------------------------------|
999999999999----12-12-12-12-12-12--------------------------------------|
999999999999-11-12-12-12-12-12-12-12-12-12-12-12-12-101010101010101010-|
777777777777--9-10-10-10-10-10-10-12-12-12-12-12-12-101010101010101010-|
777777777777----10-10-10-10-10-10-10-10-10-10-10-10--8-8-8-8-8-8-8-8-8-|


CHORUS
---------------|
---------------|
--12-12----1---|4x
--12-12----1---|4x
1010-10-12-1---|2x
1010-10-12-1---|2x


CHORUS
-----------------------------------------------------------------------|
-----------------------------------------------------------------------|
999999999999----12-12-12-12-12-12--------------------------------------|
999999999999-11-12-12-12-12-12-12-12-12-12-12-12-12-101010101010101010-|
777777777777--9-10-10-10-10-10-10-12-12-12-12-12-12-101010101010101010-|
777777777777----10-10-10-10-10-10-10-10-10-10-10-10--8-8-8-8-8-8-8-8-8-|


CHORUS
----------------------------------|
----------------------------------|
12-12-12-12-12-12--14-14-14-14-14-|
12-12-12-12-12-12--14-14-14-14-14-|
10-10-10-10-10-10--12-12-12-12-12-|
10-10-10-10-10-10-----------------|



CHORUS
-----------------------------------------------------------------------|
-----------------------------------------------------------------------|
999999999999----12-12-12-12-12-12--------------------------------------|
999999999999-11-12-12-12-12-12-12-12-12-12-12-12-12-101010101010101010-|
777777777777--9-10-10-10-10-10-10-12-12-12-12-12-12-101010101010101010-|
777777777777----10-10-10-10-10-10-10-10-10-10-10-10--8-8-8-8-8-8-8-8-8-|


CHORUS
--------------------3^7-guit2-----|
--------------------5-------------|
12-12-12-12-12-12--14-guit1-------|
12-12-12-12-12-12--14-------------|
10-10-10-10-10-10--12-------------|
10-10-10-10-10-10-----------------|


Outro
-------------------------------------------------------------------|
-------------------------------------------------------------------|
--9---11-12------------12-------9---12--------12-12-12-14-14-14----|
--9---11-12--------10--12-------9---12-----10-12-12-12-14-14-14----|
--7----9-10---11---10--10-12----7---10--12-10-10-10-10-12-12-12----|
--7----9-10---10----8--10-10----7---10--10--8-10-10-10-------------|


Outro
--------------------------------------------------------------------|
--------------------------------------------------------------------|
--9---11-12------------12-------9-11-12-----------------------------|
--9---11-12--------10--12-------9-11-12-----10----------------------|
--7----9-10---12---10--10-12----7--9-10--12-10----------------------|
--7----9-10---10----8--10-10----7--9-10--10--8----------------------|
Tap to rate this tab
 
# A B C D E F G H I J K L M N O P Q R S T U V W X Y Z