Song name
# A B C D E F G H I J K L M N O P Q R S T U V W X Y Z

Afi - Midnight Sun tab

A Fire Inside
Midnight Sun


intro
-12-14-15-12--------14-15-15--------|
-----0--0-12-----15-15-15-17--------|
------------------------------------|
------------------------------------|
------------------------------------|
------------------------------------|


verse
----------------------------------------------------------------------|
----------------------------------------------------------------------|
-pm---9--===-====-=================------5-====================-------|
-====-9--999-7777-99999999-88888888-====-5-555-4444-66666666-55-55555-|
-7777-7--777-5555-77777777-88888888-3333-3-333-2222-44444444-55-55555-|
-7777-7--777-5555-77777777-66666666-3333-3-333-2222-44444444-33-33333-|


verse
-------------------------------------------------------------|
-------------------------------------------------------------|
-pm---9--===-====-=================------5-=================-|
-====-9--999-7777-99999999-88888888-====-5-555-3333-66666666-|
-7777-7--777-5555-77777777-88888888-3333-3-333-1111-44444444-|
-7777-7--777-5555-77777777-66666666-3333-3-333-1111-44444444-|


Verse end
-------------------|
-12-12-12-12-12-12-|
-12-12-12-12-12-12-|
-12-12-12-12-12-12-|
-10-10-10-10-10-10-|
-10-10-10-10-10-10-|


Chorus, 2Xs
|--------------------------------------------------------------|
|:------------------------------------------------------------:|
|---99999999--9--9--9--9--9--9--9--9---------------------------|
|---99999999-10-10-10-10-10-10-10-10------7777----------9999---|
|:--77777777--7--7--7--7--7--7--7--7--888-7777-10-10-10-9999--:|
|---00000000--0--0--0--0--0--0--0--0--555-5555--7--7--7-7777---|



verse
----------------------------------------------------------------------|
----------------------------------------------------------------------|
-pm---9--===-====-=================------5-====================-------|
-====-9--999-7777-99999999-88888888-====-5-555-4444-66666666-55-55555-|
-7777-7--777-5555-77777777-88888888-3333-3-333-2222-44444444-55-55555-|
-7777-7--777-5555-77777777-66666666-3333-3-333-2222-44444444-33-33333-|


verse
-------------------------------------------------------------|
-------------------------------------------------------------|
-pm---9--===-====-=================------5-=================-|
-====-9--999-7777-99999999-88888888-====-5-555-3333-66666666-|
-7777-7--777-5555-77777777-88888888-3333-3-333-1111-44444444-|
-7777-7--777-5555-77777777-66666666-3333-3-333-1111-44444444-|


Verse end
-------------------|
-12-12-12-12-12-12-|
-12-12-12-12-12-12-|
-12-12-12-12-12-12-|
-10-10-10-10-10-10-|
-10-10-10-10-10-10-|


Chorus, 4Xs
|--------------------------------------------------------------|
|:------------------------------------------------------------:|
|---99999999--9--9--9--9--9--9--9--9---------------------------|
|---99999999-10-10-10-10-10-10-10-10------7777----------9999---|
|:--77777777--7--7--7--7--7--7--7--7--888-7777-10-10-10-9999--:|
|---00000000--0--0--0--0--0--0--0--0--555-5555--7--7--7-7777---|


bridge
-----------------------------------------------------------------------|
---------------------------888-8888----------------------------8888888-|
999-7777-999-7777-99999999-777-6666-555-3333-555-4444-66666666-7776666-|
999-7777-999-7777-99999999-555-5555-555-3333-555-4444-66666666-5555555-|
777-5555-777-5555-77777777-555-5555-333-1111-333-2222-44444444-5555555-|
777-5555-777-5555-77777777----------333-1111-333-2222-44444444---------|


bridge
---------------------------------------------------------------|
---------------------------888-8888----------------------------|
999-7777-999-7777-99999999-777-6666-555-3333-555-4444-66666666-|
999-7777-999-7777-99999999-555-5555-555-3333-555-4444-66666666-|
777-5555-777-5555-77777777-555-5555-333-1111-333-2222-44444444-|
777-5555-777-5555-77777777----------333-1111-333-2222-44444444-|


bridge
----------------------------------|
-88888888888888888888888888888888-|
-77776666777766667777666677776666-|
-55555555555555555555555555555555-|
-55555555555555555555555555555555-|
----------------------------------|


Acoustic interlude under whispers
|----------------------------------------------------------------------|
|:--------------------------------------------------------------------:|
|--99999999--9--9--9--9--9--9--9--9-10-10-10-9999-12-12-12-11-11-11-11-|
|--99999999-10-10-10-10-10-10-10-10--7--7--7-7777--9--9--9--9--9--9--9-|
|:-77777777--7--7--7--7--7--7--7--7-----------------------------------:|
|--00000000--0--0--0--0--0--0--0--0------------------------------------|



Chorus, 4Xs
|--------------------------------------------------------------|
|:------------------------------------------------------------:|
|---99999999--9--9--9--9--9--9--9--9---------------------------|
|---99999999-10-10-10-10-10-10-10-10------7777----------9999---|
|:--77777777--7--7--7--7--7--7--7--7--888-7777-10-10-10-9999--:|
|---00000000--0--0--0--0--0--0--0--0--555-5555--7--7--7-7777---|



----(12)----------------------------|
-----------------------------3/5----|
--9---------------------------------|
--9---------------------------------|
--7---------------------------------|
--0---------------------------------|
Tap to rate this tab
 
# A B C D E F G H I J K L M N O P Q R S T U V W X Y Z