Song name
# A B C D E F G H I J K L M N O P Q R S T U V W X Y Z

Afi - God Called In Sick Today tab

a fire inside,
God Called In Sick Today


Intro
----------------------------------------------------------------------|
----------------------------------------------------------------------|
----------------------------------------------------------------------|
-------8-------8----8-----7-----7---7-----7-----7---7-----8-----8---0-|
-10-10---10-10---10---8-8---8-8---8---5-5---5-5---5---6-6---6-6---6---|
----------------------------------------------------------------------|


Intro
---------------------------------------------------------------------|
---------------------------------------------------------------------|
------------10----------------------------2-3\2----------------------|
-------8-------8----------7-----7---7---3-------3---0---8--8---0-----|
-10-10---10------10-10-88---8-8---8---5-----------5---66-66--6-------|
---------------------------------------------------------------------|



VERSE
----------------------------------------------------------------------|
----------------------------------------------------------------------|
----------------------------------------------------------------------|
-------8-------8----8-----7-----7---7-----7-----7---7-----8-----8---0-|
-10-10---10-10---10---8-8---8-8---8---5-5---5-5---5---6-6---6-6---6---|
----------------------------------------------------------------------|


VERSE
---------------------------------------------------------------------|
---------------------------------------------------------------------|
------------10----------------------------2-3\2----------------------|
-------8-------8----------7-----7---7---3-------3---0---8--8---0-----|
-10-10---10------10-10-88---8-8---8---5-----------5---66-66--6-------|
---------------------------------------------------------------------|


VERSE
----------------------------------------------------|
PM--------------------------------------------------|
===================================================-
-8--8--8--8--8--8--8--8-77777777-77777777-888888888-|
10-10-10-10-10-10-10-10-88888888-55555555-666666666-|
----------------------------------------------------|

VERSE
----------------------------------------------------|
PM--------------------------------------------------|
================================-77777777-888888888-|
-8--8--8--8--8--8--8--8-77777777-77777777-888888888-|
10-10-10-10-10-10-10-10-88888888-55555555-666666666-|
---------------------------------55555555-666666666-|



CHORUS
-----------------------------------------|
-----------------------------------------|
-3333-5555555-------10-10-10-10-10-10-10-|
-3333-5555555-5555--10-10-10-10-10-10-10-|
-1111-3333333-5555---8--8--8--8--8--8--8-|
--------------3333---8--8--8--8--8--8--8-|



CHORUS
-------------------------------------------------|
-------------------------------------------------|
-3333-5555555-------888x-10-10-10----12----------|
-3333-5555555-5555--888x-10-10-10----12----------|
-1111-3333333-5555--666x--8--8--8----10----------|
--------------3333--666x--8--8--8----10----------|



VERSE
----------------------------------------------------------------------|
-PM-------------------------------------------------------------------|
-====================================================================-
-------8-------8----8-----7-----7---7-----7-----7---7-----8-----8---0-|
-10-10---10-10---10---8-8---8-8---8---5-5---5-5---5---6-6---6-6---6---|
----------------------------------------------------------------------|


VERSE
-PM------------------------------------------------------------------|
-===============================================================-----|
------------10----------------------------2-3\2----------------------|
-------8-------8----------7-----7---7---3-------3---0---8--8---0-----|
-10-10---10------10-10-88---8-8---8---5-----------5---66-66--6-------|
---------------------------------------------------------------------|


VERSE
----------------------------------------------------|
PM--------------------------------------------------|
==============================================------|
-8--8--8--8--8--8--8--7777777-7777777--8888888------|
10-10-10-10-10-10-10--8888888-5555555--6666666------|
10-10-10-10----10-----8888-8--5555-5---6666-6-------|



VERSE
----------------------------------------------------|
PM--------------------------------------------------|
=============================-7777777--8888888------|
-8--8--8--8--8--8--8--7777777-7777777--8888888------|
10-10-10-10-10-10-10--8888888-5555555--6666666------|
10-10-10-10----10-----8888-8--5555555--6666666------|



CHORUS
-----------------------------------------|
-----------------------------------------|
-3333-5555555-------10-10-10-10-10-10-10-|
-3333-5555555-5555--10-10-10-10-10-10-10-|
-1111-3333333-5555---8--8--8--8--8--8--8-|
--------------3333---8--8--8--8--8--8--8-|



CHORUS
-----------------------------|
-----------------------------|
-3333-5555555-------88888888-|
-3333-5555555-5555--88888888-|
-1111-3333333-5555--66666666-|
--------------3333--66666666-|


CHORUS
-----------------------------------------|
-----------------------------------------|
-3333-5555555-------10-10-10-10-10-10-10-|
-3333-5555555-5555--10-10-10-10-10-10-10-|
-1111-3333333-5555---8--8--8--8--8--8--8-|
--------------3333---8--8--8--8--8--8--8-|



CHORUS
-----------------------------|
-----------------------------|
-3333-5555555-------88888888-|
-3333-5555555-5555--88888888-|
-1111-3333333-5555--66666666-|
--------------3333--66666666-|



BRIDGE
------------------------------------------------------|
-6666-5555555-2222-3333333--6666-5555555-2222-3333333-|
-7777-5555555-2222-3333333--7777-5555555-2222-3333333-|
-7777-5555555-2222-3333333--7777-5555555-2222-3333333-|
-5555-3333333-0000-1111111--5555-3333333-0000-1111111-|
-5555-3333333-0000-1111111--5555-3333333-0000-1111111-|


BRIDGE
-----------------------------------------------------------------------|
-----------------------------------------------------------------------|
------------------------------00---------332---------------------------|
333-555-2222-33-22-2-2222-333-33-33--333-333-2222-33-55-222-33-3333333-|
555-555-3333-33-33-0-0000-111-11-11--555-555-3333-33-33-000-00-1111333-|
-------------------------------------------------------------------111-|





BRIDGE
-----------------------------------------------------------|
-----------------------------------------------------------|
------------3-----------------------PM--888888--QUICK------|
--5----3333-3------3333-5---5555555-===-888888---REST------|
--5----3333-1------3333-5---5555555-666-666666-------------|
--3----1111-1------1111-3---3333333-666-666666-------------|



CHORUS
-----------------------------------------|
-----------------------------------------|
-3333-5555555-------10-10-10-10-10-10-10-|
-3333-5555555-5555--10-10-10-10-10-10-10-|
-1111-3333333-5555---8--8--8--8--8--8--8-|
--------------3333---8--8--8--8--8--8--8-|



CHORUS
-----------------------------|
-----------------------------|
-3333-5555555-------88888888-|
-3333-5555555-5555--88888888-|
-1111-3333333-5555--66666666-|
--------------3333--66666666-|



CHORUS
-----------------------------------------|
-----------------------------------------|
-3333-5555555-------10-10-10-10-10-10-10-|
-3333-5555555-5555--10-10-10-10-10-10-10-|
-1111-3333333-5555---8--8--8--8--8--8--8-|
--------------3333---8--8--8--8--8--8--8-|



CHORUS
---------------------------------------------------------------|
---------------------------------------------------------------|
-3333-5555555-------88888888-----------------------------------|
-3333-5555555-5555--88888888-8----8\3333-5---------------------|
-1111-3333333-5555--66666666-8----8\3333-5---------------------|
--------------3333--66666666-6----6\1111-3---------------------|
Tap to rate this tab
 
# A B C D E F G H I J K L M N O P Q R S T U V W X Y Z