Afi - Weathered Tome tab

Weathered Tome


intro
------------------------------------|
------------------------------------|
------------------------------------|
-pm-----------------------22222222--|
-================-2222222222222222--|
-0000000000000000-0000000000000000--|



verse
------------------------------------------------|
----------------------------------------8888888-|
-10-10-10-9------------7779-------------7777777-|
-10-10-10-9--pm--------7779--pm---------5555555-|
--8--8--8-7-==========-5557-==========--5555555-|
--8--8--8-7-0000000000-5557-0000000000----------|


verse
-----------------------------------------------------------|
-----------------------------------------------------------|
-10-10-10-9------------7779------------7-9---7-10----------|
-10-10-10-9--pm--------7779--pm--------5-7---7-10----------|
--8--8--8-7-==========-5557-==========-5-7-x-5--8----------|
--8--8--8-7-0000000000-5557-0000000000-----x-5--8----------|



Pre-chorus
----------------------------------------------------|
----------------------------------------------------|
--777777-777-99999999999999999-777777777------------|
--777777-777-99999999999999999-777777777-2-2--2222--|
--555555-555-77777777777777777-555555555-2-2--2222--|
--555555-555-77777777777777777-555555555-0-3^00000--|


Pre-chorus
-------------------------------------------------------------------|
-------------------------------------------------------------------|
-777777-777-99999999999999999--------------------------------------|
-777777-777-99999999999999999---7-harm.-77777-9999999999-----------|
-555555-555-77777777777777777-x-7-(77)--77777-9999999999-x\pick----|
-555555-555-77777777777777777-x-5-------55555-7777777777-x\\scrape-|



chorus
|----------------------------------------------|
|:---------------------------------harmonix---:|
|---999-777-222--5----999-777-222-((777777))---|
|---999-777-222-x5x5--999-777-222-((555555))---|
|:--777-555-000-x3x5--777-555-000-------------:|
|---777-555-000-x3x3--777-555-000--------------|




------------------------------------|
------------------------------------|
------------------------------------|
-pm-----------------------22222222--|
-================-2222222222222222--|
-0000000000000000-0000000000000000--|



verse
------------------------------------------------|
----------------------------------------8888888-|
-10-10-10-9------------7779-------------7777777-|
-10-10-10-9--pm--------7779--pm---------5555555-|
--8--8--8-7-==========-5557-==========--5555555-|
--8--8--8-7-0000000000-5557-0000000000----------|


verse
-----------------------------------------------------------|
-----------------------------------------------------------|
-10-10-10-9------------7779------------7-9---7-10----------|
-10-10-10-9--pm--------7779--pm--------5-7---7-10----------|
--8--8--8-7-==========-5557-==========-5-7-x-5--8----------|
--8--8--8-7-0000000000-5557-0000000000-----x-5--8----------|



Pre-chorus
----------------------------------------------------|
----------------------------------------------------|
--777777-777-99999999999999999-777777777------------|
--777777-777-99999999999999999-777777777-2-2--2222--|
--555555-555-77777777777777777-555555555-2-2--2222--|
--555555-555-77777777777777777-555555555-0-3^00000--|


Pre-chorus
-------------------------------------------------------------------|
-------------------------------------------------------------------|
-777777-777-99999999999999999--------------------------------------|
-777777-777-99999999999999999---7-harm.-77777-9999999999-----------|
-555555-555-77777777777777777-x-7-(77)--77777-9999999999-x\pick----|
-555555-555-77777777777777777-x-5-------55555-7777777777-x\\scrape-|



chorus
|----------------------------------------------|
|:---------------------------------harmonics--:|
|---999-777-222--5----999-777-222-((777777))---|
|---999-777-222-x5x5--999-777-222-((555555))---|
|:--777-555-000-x3x5--777-555-000-------------:|
|---777-555-000-x3x3--777-555-000--------------|




-----------------------------------------|
-----------------------------------------|
-----------------------------------------|
-pm-----------------------22222222-x\----|
-================-2222222222222222-x\\---|
-0000000000000000-0000000000000000--\\\\-|



bridge
--------------------------------------------------|
--88888888888-77777777777-222222222222------------|
--99999999999-77777777777-222222222222-555555-5-7-|
--99999999999-77777777777-222222222222-555555-3-5-|
--77777777777-55555555555-000000000000-333333-3-5-|
--77777777777-55555555555-000000000000-333333-----|



bridge
----------------------------------------------------0----------------|
--88888888888-77777777777-222222222222--------------0----------------|
--99999999999-77777777777-222222222222-4444---4-6---x--let-----------|
--99999999999-77777777777-222222222222-5555x--5-7---2---ring---------|
--77777777777-55555555555-000000000000-5555x--5x7xx-2----out---------|
--77777777777-55555555555-000000000000-33330--3x5xx-0----------------|


outro
-----------------------------------|
-----------------------------------|
-----------------------------------|
-pm-----------------------22222222-|
-================-2222222222222222-|
-0000000000000000-0000000000000000-|
Tap to rate this tab
 
# A B C D E F G H I J K L M N O P Q R S T U V W X Y Z