Song name
# A B C D E F G H I J K L M N O P Q R S T U V W X Y Z

Afi - The Last Kiss tab

The Last Kiss

Intro
  PM
--=====================================================--|
--66---5---6---88---5----55---66---5---6---8----5---555--|
--77-7-7-7-7-7-77---5----55---77-7-7-7-7-7-7----5---555--|
--00-0-0-0-0-0-00-0-0-00-00-0-00-0-0-0-0-0-0-00-0-0-000--|
---------------------------------------------------------|
---------------------------------------------------------|


INTRO
  PM
--=========================--------------------|
--66---5---6---8----5---555--------------------|
--77-7-7-7-7-7-7----5---555-10----10----10-10--|
--00-0-0-0-0-0-0-00-0-0-000-10-10-10-10-10-10--|
-----------------------------8-10--8-10--8--8--|
-----------------------------8--8--8--8--8--8--|


VERSE
-------------------------------------------------------------------|
-------------------------------------------------------------------|
--777-33-55-----7--------777-33-55-----5-5--777-33-55-----7--------|
--777-33-55-333-5---7-X--777-33-55-333-2-3--777-33-55-333-5---7-X--|
--555-11-33-333-5-5-5-X--555-11-33-333-3-3--555-11-33-333-5-5-5-X--|
--555-11-33-111-----5-X--555-11-33-111------555-11-33-111-----5-X--|


VERSE
------------------------------------------------------------|
------------------------------------------------------------|
-777-33-55-33333333333-55555555555--33333333333-55555555555-|
-777-33-55-33333333333-55555555555--33333333333-55555555555-|
-555-11-33-11111111111-33333333333--11111111111-33333333333-|
-555-11-33-11111111111-33333333333--11111111111-33333333333-|



VERSE
-------------------------------------------------------------------|
-------------------------------------------------------------------|
--777-33-55-----7--------777-33-55-----5-5--777-33-55-----7--------|
--777-33-55-333-5---7-X--777-33-55-333-2-3--777-33-55-333-5---7-X--|
--555-11-33-333-5-5-5-X--555-11-33-333-3-3--555-11-33-333-5-5-5-X--|
--555-11-33-111-----5-X--555-11-33-111------555-11-33-111-----5-X--|


VERSE
------------------------------------------------------------|
------------------------------------------------------------|
-777-33-55-33333333333-55555555555--33333333333-5-5-5-5-5-5-|
-777-33-55-33333333333-55555555555--33333333333-5-5-5-5-3-2-|
-555-11-33-11111111111-33333333333--11111111111-3-3-3-3-----|
-555-11-33-11111111111-33333333333--11111111111-3-3-3-3-----|


CHORUS
--------------------------------------------------------|
--------------------------------------------------------|
--77777-5555555-5-5-2222222---77777-5555555-5-5-22-4444-|
--77777-5555555-3-2-3333333---77777-5555555-3-2-33-5555-|
--55555-3333333-1-0-3333333---55555-3333333-1-0-33-5555-|
--55555-3333333-----1111111---55555-3333333-----11-3333-|


CHORUS
----------------------------------------------------------|
----------------------------------------------------------|
--77777-5555555-5-5-2----------77777-5555555-5-5--5-5-55--|
--77777-5555555-3-2-3-PM-------77777-5555555-3-2--3-5-33--|
--55555-3333333-1-0-3-======---55555-3333333-1-0--3-3-33--|
--55555-3333333-----1-111100---55555-3333333--------3-----|



VERSE
-------------------------------------------------------------------|
-------------------------------------------------------------------|
--777-33-55-----7--------777-33-55-----5-5--777-33-55-----7--------|
--777-33-55-333-5---7-X--777-33-55-333-2-3--777-33-55-333-5---7-X--|
--555-11-33-333-5-5-5-X--555-11-33-333-3-3--555-11-33-333-5-5-5-X--|
--555-11-33-111-----5-X--555-11-33-111------555-11-33-111-----5-X--|


VERSE
------------------------------------------------------------|
------------------------------------------------------------|
-777-33-55-33333333333-55555555555--33333333333-5-5-5-5-----|
-777-33-55-33333333333-55555555555--33333333333-5-5-5-5-5-7-|
-555-11-33-11111111111-33333333333--11111111111-3-3-3-3-5-7-|
-555-11-33-11111111111-33333333333--11111111111-3-3-3-3-3-5-|



CHORUS
--------------------------------------------------------|
--------------------------------------------------------|
--77777-5555555-5-5-2222222---77777-5555555-5-5-22-4444-|
--77777-5555555-3-2-3333333---77777-5555555-3-2-33-5555-|
--55555-3333333-1-0-3333333---55555-3333333-1-0-33-5555-|
--55555-3333333-----1111111---55555-3333333-----11-3333-|


CHORUS
----------------------------------------------------------|
----------------------------------------------------------|
--77777-5555555-5-5-2----------77777-5555555-5-5--------5-|
--77777-5555555-3-2-3-PM-------77777-5555555-3-2--3-5---5-|
--55555-3333333-1-0-3-======---55555-3333333-1-0--3-5---3-|
--55555-3333333-----1-111100---55555-3333333------1-3---3-|



BRIDGE
------------------------------------------------------------------|
------------------------------------------------------------------|
--------------------------------------------======---33333--------|
--------------------------------------------22222222-33333--------|
--55555-333333-00000-1111111-55555-3333333--00000000-11111--------|
--------------------------------------------00000000-11111--------|



BRIDGE
--------------------------------------------------------|
--6666-5555555-222-333--------66665555555-----66666666--|
--7777-5555555-222-333-----5--77775555555-333-55555555--|
--7777-5555555-222-333-----5--77775555555-333-33333333--|
--5555-3333333-000-111-X-3-3--55553333333-111-33333333--|
--5555-3333333-000-----X-1-3--55553333333-111-----------|


BRIDGE
-----------------------------------------------------------|
--6666-5555555-222-333--------66665555555------------------|
--7777-5555555-222-333-----5--77775555555-3-PM--------3333-|
--7777-5555555-222-333-----5--77775555555-3=====--33333333-|
--5555-3333333-000-111-X-3-3--55553333333-1111111-11111111-|
--5555-3333333-000-----X-1-3--55553333333-1111111-11111111-|


BRIDGE
-------------------------------------------------|
-------------------------------------------------|
33333333333-55555555555--33333333333-5-5-5-5-5-5-|
33333333333-55555555555--33333333333-5-5-5-5-3-2-|
11111111111-33333333333--11111111111-3-3-3-3-----|
11111111111-33333333333--11111111111-3-3-3-3-----|


CHORUS
--------------------------------------------------------|
--------------------------------------------------------|
--77777-5555555-5-5-2222222---77777-5555555-5-5-22-4444-|
--77777-5555555-3-2-3333333---77777-5555555-3-2-33-5555-|
--55555-3333333-1-0-3333333---55555-3333333-1-0-33-5555-|
--55555-3333333-----1111111---55555-3333333-----11-3333-|


CHORUS
-----------------------------------------------------------------|
-PM-----------------------------------------------------6--------|
-=======--====--5-5-2----------77777-5555555-5-5--------7--------|
-3333333-222222-3-2-3-PM-------77777-5555555-3-2--3-5---7--------|
-5555555-333333-1-0-3-======---55555-3333333-1-0--3-5---5--------|
---------333333-----1-111100---55555-3333333------1-3---5--------|



OUTRO
---------------------------10---------------------5-------------------|
-(6)-----------------------10---------------------6-------------------|
-(7)-10--9-10--9-10/12-----10-10--9-10--9-------7-7-10--9-10--9-10/12-|
-(7)-10-10-10-10--x--x--12-12-10-10-10-10-10\8--7-7-10-10-10-10-10/12-|
-(5)--8-10--8-10--8/10--12-12--8-10--8-10-10\8--5-5--8-10--8-10--8/10-|
-(5)-----8-----8--------10-10-----8-----8--8\6--5-5-----6-----6-------|



OUTRO
----10----------------------------------------------------|
----10----------------------------------------------------|
----10-10--9-10--9----------------------------------------|
-12-12-10-10-10-10-10-10\8-8------------------------------|
-12-12--8-10--8-10-10-10\8-8------------------------------|
-10-10-----8-----8--8--8\6-6------------------------------|
Tap to rate this tab
 
# A B C D E F G H I J K L M N O P Q R S T U V W X Y Z