Afi - No Poetic Device tab

 No Poetic Device

intro
------------------------------------|
------------------------------------|
------------------------------------|
--x-x--x-xx-x-xx--x-xx--x-----------|
--x-x--x-xx-x-xx--x-xx--x-----------|
((7-7--7-77-7-77--7-77--7))---------|
  harmonics

intro
------------------------------------------------------------------|
------------------------------------------------------------------|
------------------------------------------------------------------|
--99999999999-10-999999999999-99999999999--slide-pick-fast--------|
--99999999999-10-999999999999-99999999999-10-10-10\9988776655443--|
--77777777777--8-777777777777-77777777777--8--8--8\7766554433221--|


verse
|----------------------|---------------|
|:--------------------:|---------------|
|------------7777------|---------7-----|
|--2--2-5555-7777-777--|-2-x-5-x-7-x-7-|
|:-2--2-5555-5555-777-:|-2-x-5-x-5-x-7-|
|--0--0-3333-5555-555--|-0-x-3-x-5-x-5-|



verse
------------------------------------------------------------------|
------------------------------------------------------------------|
---PM--------------PM--------------PM--------------PM----PM-------|
---=============---=============---=============---=====-======---|
---22222-44-5555---22222-44-5555---22222-44-5555---44444-333333---|
---00000-22-3333---00000-22-3333---00000-22-3333---22222-111111---|



verse
-----------------------------------------------------------------|
-----------------------------------------------------------------|
---PM--------------PM--------------PM--------------PM------------|
---=============---=============---=============---===========---|
---22222-44-5555---22222-44-5555---22222-44-5555---4-5-7-5-7-8---|
---00000-22-3333---00000-22-3333---00000-22-3333---2-3-5-3-5-6---|


------------------------------------------------------------------|
------------------------------------------------------------------|
------------------------------------------------------------------|
--99999999999-10-999999999999-99999999999--slide-pick-fast--------|
--99999999999-10-999999999999-99999999999-10-10-10\9988776655443--|
--77777777777--8-777777777777-77777777777--8--8--8\7766554433221--|


verse
|----------------------|
|:--------------------:|
|------------7777------|
|--2--2-5555-7777-777--|
|:-2--2-5555-5555-777-:|
|--0--0-3333-5555-555--|


verse
--------------------------------------------------------------|
--------------------------------------------------------------|
--------------------------------------------------------------|
-22222-4-4-5-55--22222-4-4-5-55--22222-4-4-5-55-44444-333333--|
-22222-4-4-5-55--22222-4-4-5-55--22222-4-4-5-55-44444-333333--|
-00000-2-2-3-33--00000-2-2-3-33--00000-2-2-3-33-22222-111111--|



verse
--------------------------------------------------------------|
--------------------------------------------------------------|
------------------------------------------------PM------------|
-22222-4-4-5-55--22222-4-4-5-55--22222-4-4-5-55-===========---|
-22222-4-4-5-55--22222-4-4-5-55--22222-4-4-5-55-4-5-7-5-7-8---|
-00000-2-2-3-33--00000-2-2-3-33--00000-2-2-3-33-2-3-5-3-5-6---|


verse
----------------------------------------------------------------------|
----------------------------------------------------------------------|
----------------------------------------------------------------------|
--99999999999-10-999999999999-99999999999--slide-pick-fast-------2----|
--99999999999-10-999999999999-99999999999-10-10-10\9988776655443-2----|
--77777777777--8-777777777777-77777777777--8--8--8\7766554433221-0----|




----------------------------------------------------------------------|
----------------------------------------------------------------------|
----------------REST-FOR-DRUMS-BASS-&-VOCALS--------------------------|
----------------------------------------------------------------------|
----------------------------------------------------------------------|
----------------------------------------------------------------------|



---(12)-------(7)------(5)--------------------------------------------|
-------(12)------(7)------(5)-----------------------------------------|
-----------------------------------44------44-----44-----44--------4--|
-----------------------------------22------22-----22-----22--------2--|
-----------------------------------22------22-----22-----22--------2--|
-----------------------------------00------00-----00-----00--------0--|



verse
|----------------------|
|:--------------------:|
|------------7777------|
|--2--2-5555-7777-777--|
|:-2--2-5555-5555-777-:|
|--0--0-3333-5555-555--|


outro
|------------------------------|
|:----------------------------:|
|--9999--7777--3333--5\4-5\4---|
|--xxxx--xxxx--xxxx--x\x-x\x---|
|:-7777--5555--1111--3\2-3\2--:|
|------------------------------|
Tap to rate this tab
 
# A B C D E F G H I J K L M N O P Q R S T U V W X Y Z