Song name
# A B C D E F G H I J K L M N O P Q R S T U V W X Y Z

Afi - Narrative Of Soul Against Soul tab

Narrative Of Soul Against Soul


INTRO
----------------------------------------------------|
------------------------------777777-8-7-5555-------|
-99999-7-9---4---harm.----4---777777-7-7-5555---4-7-|
-99999-7-9---5-((555))--x-5---777777-7-7-5555---5-7-|
-77777-7-7---5----------x-5-0-555555-5-5-3333---5-5-|
-77777-----0-3----------x-3-0-555555-5-5-3333-3-3-5-|


INTRO
-----------------------------------------------------------|
--------------------777777-8-7-5555------------------------|
-9\--4--harm.--4----777777-7-7-5555---4-6------------------|
-9\2-5-((555))x5----777777-7-7-5555---5-7-2----slow slide--|
-7\2-5--------x5-0--555555-5-5-3333---5-7-2---12\\\\\\\\\--|
-7\0-3--------x3-00-555555-5-5-3333-3-3-5-0---12\\\\\\\\\\-|



VERSE
|---------------------------------------------------|
|:-------------------------------------------------:|
|---------------444-666---------------7777----------|
|--7/9999999999-555-777--7/9999999999-7777-x-7777---|
|:-7/9999999999-555-777--7/9999999999-5555-x-7777--:|
|--5/7777777777-333-555--5/7777777777-5555-x-5555---|



VERSE
----------------------------------------------------|
----------------------------------------------------|
---------------------------------------77-----------|
--99----99----55----77-----99----99----77----77-----|
--99===-99===-55===-77===--99===-99===-55===-77===--|
--77777-77777-33333-55555--77777-77777-55555-55555--|



VERSE
----------------------------------------------------|
----------------------------------------------------|
---------------------------------------777----------|
--99----99----55----77-----99----99----777--7-------|
--99===-99===-55===-77===--99===-99===-555--7--X\---|
--77777-77777-33333-55555--77777-77777-555--5--X\\--|


CHORUS
|---------------------------------------------------|------------------|
|:-------------88888888888-------------------------:|------------------|
|--99999999999-77777777777-77777777777-55555-77777--|-----99-----------|
|--99999999999-55555555555-77777777777-55555-77777--|--2--99-----------|
|:-77777777777-55555555555-55555555555-33333-55555-:|-222-77-12\\\\\\--|
|--77777777777-------------55555555555-33333-55555--|-0-0----12\\\\\\\-|



VERSE
|----------------------------------------------------|
|----------------------------------------------------|
|---------------444-666---------------7777-----------|
|--7/9999999999-555-777--7/9999999999-7777-x-7777----|
|--7/9999999999-555-777--7/9999999999-5555-x-7777----|
|--5/7777777777-333-555--5/7777777777-5555-x-5555----|


VERSE
----------------------------------------------------|
----------------------------------------------------|
----------------444-666---------------777-----------|
---7/9999999999-555-777--7/9999999999-777-7---------|
---7/9999999999-555-777--7/9999999999-555-7--X\-----|
---5/7777777777-333-555--5/7777777777-555-5--X\\----|



CHORUS
|---------------------------------------------------|
|:-------------88888888888-------------------------:|
|--99999999999-77777777777-77777777777-55555-77777--|
|--99999999999-55555555555-77777777777-55555-77777--|
|:-77777777777-55555555555-55555555555-33333-55555-:|
|--77777777777-------------55555555555-33333-55555--|



CHORUS
---------------------------------------------|
---------------------------------------------|
-9\------44444444444-77777777777-55555-77777-|
-9\22222-55555555555-77777777777-55555-77777-|
-7\22222-55555555555-55555555555-33333-55555-|
-7\00000-33333333333-55555555555-33333-55555-|



CHORUS
----------------------------------------------------------------------|
-------------88888888888----------------------------------------------|
-99999999999-77777777777-77777777777-55555-77777--9-------------------|
-99999999999-55555555555-77777777777-55555-77777--9-------2-----------|
-77777777777-55555555555-55555555555-33333-55555--7-------2-----------|
-77777777777-------------55555555555-33333-55555--0-------0-----------|



BRIDGE
-000-222-33-000-222-33-7----8----7---2--3--2--|
-555-555-55-555-555-55-8-88-8-88-8-8-33333332-|
-============================================-
-SLIGHT-PM------------------------------------|
----------------------------------------------|
----------------------------------------------|



BRIDGE
-000-222-33-000-222-33-7---10---87-2--5-32-|
-555-555-55-555-555-55-888--8-8-88-3333333-|
-=========================================-
-------------------------------------------|
-------------------------------------------|
-------------------------------------------|



BRIDGE
-000-222-33-000-222-33-7----8----7---2--3--2--777777555557--------|
-555-555-55-555-555-55-8-88-8-88-8-8-33333332-000000000000--------|
-============================================-444444444444--QUICK-|
-SLIGHT-PM--------------------------------------------------REST--|
------------------------------------------------------------------|
------------------------------------------------------------------|


CHORUS
|---------------------------------------------------|
|:-------------88888888888-------------------------:|
|--99999999999-77777777777-77777777777-55555-77777--|
|--99999999999-55555555555-77777777777-55555-77777--|
|:-77777777777-55555555555-55555555555-33333-55555-:|
|--77777777777-------------55555555555-33333-55555--|



CHORUS
---------------------------------------------|
---------------------------------------------|
-9\------44444444444-77777777777-55555-77777-|
-9\22222-55555555555-77777777777-55555-77777-|
-7\22222-55555555555-55555555555-33333-55555-|
-7\00000-33333333333-55555555555-33333-55555-|



CHORUS
-------------------------------------------------|
-------------88888888888-------------------------|
-99999999999-77777777777-77777777777-55555-77777-|
-99999999999-55555555555-77777777777-55555-77777-|
-77777777777-55555555555-55555555555-33333-55555-|
-77777777777-------------55555555555-33333-55555-|


OUTRO
00022233-00022233-00022233---77-----|
55555555-55555555-55555555-5-55-----|
=================-------------------|
------------------------------------|
------------------------------------|
------------------------------------|
Tap to rate this tab
 
# A B C D E F G H I J K L M N O P Q R S T U V W X Y Z