Afi - Malleus Maleficarum tab

Malleus Maleficarum

intro
|-------------------------------12---|
|:------------------------------12--:|
|--7-999-12\9-9---7-999-12\9-9--12---|
|--x-xxx--x-x-x---x-xxx--x-x-x--14---|
|:-5/777-10\7-7---5/777-10\7-7------:|
|--0--00--0---0---0--00--0---0-------|



verse
---------------------------------------------------|
---------------77---------------------------77-----|
------------44-77-88---------------------44-77-66--|
--222-------55-77-99---22----222---------55-77-77--|
--222-------55-55-99---22----222-----x\--55-55-77--|
--000-------33-55-77-0-00----000-----x\\-33-55-55--|



------------------------------------------------------------------------|
--------------------pick-fast-------------------------------------------|
9999999999999999-12-***********-14-***********-16-*************---------|
xxxxxxxxxxxxxxxx--x-***********--x-***********--x-*************---------|
7777777777777777-10-***********-12-***********-14-*************-x\pick--|
0000000000000000--0--------------0--------------0---------------x\\-----|scrp



chorus
-------------------------------------------------------------------|
-------------------------------------------------------------------|
-44-77--99-------99999---44-77---pm-----9-999-44-77---6666---------|
-55-77--99-------99999---55-77---======-9-999-55-77---7777---22222-|
-55-55--77-------77777---55-55---777777-7-777-55-55---7777---22222-|
-330550077-0-5/7-77777---3305500-777777-7-777-3305500-5555-0-00000-|


chorus
-------------------------------------|
---------------------444444444-------|
--55-pm--------------444444444-------|quick
--55-===============-444444444-------|rest
--33-333333333333333-222222222-------|
--33-333333333333333-222222222-------|



Verse 2
--------------------------------------------|
--------------------------------------------|
-----------------------------------44-77-88-|
-222-------------------------------55-77-99-|
-222==============================-55-55-99-|
-000000000000000000000000000000000-33-55-77-|



Verse 2
--------------------------------------------|
--------------------------------------------|
-----------------------------------44-77-88-|
-222-------------------------------55-77-99-|
-222==============================-55-55-99-|
-000000000000000000000000000000000-33-55-77-|



------------------------------------------------------------------------|
--------------------pick-fast-------------------------------------------|
9999999999999999-12-***********-14-***********-16-*************---------|
xxxxxxxxxxxxxxxx--x-***********--x-***********--x-*************---------|
7777777777777777-10-***********-12-***********-14-*************-x\pick--|
0000000000000000--0--------------0--------------0---------------x\\-----|scrp



chorus
-------------------------------------------------------------------|
-------------------------------------------------------------------|
-44-77--99-------99999---44-77---pm-----9-999-44-77---6666---------|
-55-77--99-------99999---55-77---======-9-999-55-77---7777---22222-|
-55-55--77-------77777---55-55---777777-7-777-55-55---7777---22222-|
-330550077-0-5/7-77777---3305500-777777-7-777-3305500-5555-0-00000-|


chorus
-------------------------------------|
---------------------444444444-------|
--55-pm--------------444444444-------|quick
--55-===============-444444444-------|rest
--33-333333333333333-222222222-------|
--33-333333333333333-222222222-------|




bridge
|-------------------------------------|-------------------------------|
|:-----------------------------------:|-------------------------------|
|--7-999-12\9-9-7/999-7/999-7---------|----PM-------------------------|
|--x-xxx--x-x-x-x-xxx-x-xxx-7-5-2222--|----==----===----==---===---==-|
|:-5/777-10\7-7-5/777-5/777-5-5-2222-:|----22----222----22---222---22-|
|--0--00--0---0-0--00-0--00-503-0000--|----00----000----00---000---00-|


bridge
-----------------------------||------------------------------------------|
-----------------------------||:-----------------------------------------|
--------PM-------------------||---9-----9----9---9----9-----10-----10----|
==--===-======----===---==-5-||---9-----9----9---9----9-----10-----10----|
22--222-222222----222---22-7-||:--7-===-7-==-7-=-7-==-7-===--8-===--8----|
00--000-000000----000---00---||-----000---00---0---00---000----000----00-|



bridge
---------------------||
--------------------:||
-10---10----10-------||
-10---10----10-------||
--8-=--8-==--8-===--:||
----0----00----000---||



------------------------------------------------------------------------|
--------------------pick-fast-------------------------------------------|
9999999999999999-12-***********-14-***********-16-************----------|ARISE”
xxxxxxxxxxxxxxxx--x-***********--x-***********--x-*************---------|
7777777777777777-10-***********-12-***********-14-*************---------|
0000000000000000--0--------------0--------------0-----------------------|




chorus
-------------------------------------------------------------------|
-------------------------------------------------------------------|
-44-77--99-------99999---44-77---pm-----9-999-44-77---6666---------|
-55-77--99-------99999---55-77---======-9-999-55-77---7777---22222-|
-55-55--77-------77777---55-55---777777-7-777-55-55---7777---22222-|
-330550077-0-5/7-77777---3305500-777777-7-777-3305500-5555-0-00000-|


chorus
-------------------------------------|
---------------------444444444-------|
--55-pm--------------444444444-------|quick
--55-===============-444444444-------|rest
--33-333333333333333-222222222-------|
--33-333333333333333-222222222-------|



|-------------------------------------|-----------------(7)-----(5)---|
|:-----------------------------------:|------(12)-------(7)-----(5)---|
|--7-999-12\9-9-7/999-7/999-7---------|------(12)-------(7)-----(5)---|
|--x-xxx--x-x-x-x-xxx-x-xxx-7-5-2222--|-2------HARMONIX---------------|
|:-5/777-10\7-7-5/777-5/777-5-5-2222-:|-2-----------------------------|
|--0--00--0---0-0--00-0--000503-0000--|-0-----------------------------|
Tap to rate this tab
 
# A B C D E F G H I J K L M N O P Q R S T U V W X Y Z