Afi - Exsanguination tab

Exsanguination

INTRO
-(12)---------------------------------------------------------------|
--------------------------------------------------------------------|
--------------4-----4----7-7-7-/12-12-12-12-11-11\----4-------4-----|
--------------2-----2--2-x-x-x-/-x--x--x--x--x--x\----2-5-7---2-----|
------------=-2-===-2--2-5-5-5-/10-10-10-10--9--9\---22-5-7---2-----|
------------0---000-0------------------------------0-00-3-5-0-0-----|



INTRO
--------------------------------------------------------------------|
--------------------------------------------------------------------|
--7-7\-2-22-11-11-11\---------------------------9999-9----9----9----|
--x-x--x-xx--x--x--x\---------------------------9999-9-xx-9-xx-9-x--|
--5-5\-0-00--9--9--9\-2222-3333-5555-6666-7777--7777-7-xx-7-xx-7-x--|
----------------------0000-0000-0000-0000-0000---------xx---xx---x--|



VERSE
----------------------------------------------------|
----------------------------------------------------|
--9999999999-77777777777-555555555555-444444444444--|
--9999999999-77777777777-555555555555-555555555555--|
--7777777777-55555555555-333333333333-555555555555--|
--7777777777-55555555555-333333333333-333333333333--|



VERSE
----------------------------------------------------|
----------------------------------------------------|
--9999999999-77777777777-555555555555-----harm.-----|
--9999999999-77777777777-555555555555-5--(55)---5---|
--7777777777-55555555555-333333333333-5---------5---|
--0000000000-55555555555-333333333333-3---------3---|



VERSE
----------------------------------------------------|
----------------------------------------------------|
--9999999999-77777777777-555555555555-444444444444--|
--9999999999-77777777777-555555555555-555555555555--|
--7777777777-55555555555-333333333333-555555555555--|
--7777777777-55555555555-333333333333-333333333333--|



VERSE
----------------------------------------------------------------------|
----------------------------------------------------------------------|
-9999999999-77777777777-555555555555-4444-7777---pm-------------------|
-9999999999-77777777777-555555555555-5555-7777-9-===========999999999-|
-7777777777-55555555555-333333333333-5555-5555-9-99999999999999999999-|
-0000000000-55555555555-333333333333-3333-5555-7-77777777777777777777-|



chorus
----------------------------------------------------|
--5-------------------------------------------------|
--4-------------------------77777-9-----------------|
--2-----------------------==77777-9--x\---pick------|
--2-----------------------5555555-7--x\\x\-scrapes--|
--0-----------------------5555555-7-----x\\---------|



VERSE
----------------------------------------------------|
----------------------------------------------------|
--9999999999-77777777777-555555555555-----harm.-----|
--9999999999-77777777777-555555555555-5--(55)---5---|
--7777777777-55555555555-333333333333-5---------5---|
--0000000000-55555555555-333333333333-3---------3---|




VERSE
----------------------------------------------------------------------|
----------------------------------------------------------------------|
-9999999999-77777777777-555555555555-4444-7777---pm-------------------|
-9999999999-77777777777-555555555555-5555-7777-9-===========999999999-|
-7777777777-55555555555-333333333333-5555-5555-9-99999999999999999999-|
-0000000000-55555555555-333333333333-3333-5555-7-77777777777777777777-|



chorus
----------------------------------------------------|
--5-------------------------------------------------|
--4-------------------------77777-9-------9---------|
--2-----------------------==77777-9-------9--quick--|
--2-----------------------5555555-7-------7---rest--|
--0-----------------------5555555-7-------7---------|


bridge
------------------------------------------------------------------------|
-8-88-8/10-10-10-10-10-10-10--------------------10-10-10-10-10-10-10-10-|
-9-99-9/11-11-11-11-11-11-11-/12-12-12-12-12-12-11-11-11-11-11-11-11-11-|
-x-xx-x--x--x--x--x--x--x--x-/-x--x--x--x--x--x--x--x--x--x--x--x--x--x-|
-7-77-7/-9--9--9--9--9--9--9-/10-10-10-10-10-10--9--9--9--9--9--9--9--9-|
------------------------------------------------------------------------|


bridge
------------------------------------------------------------------------|
-8-88-8/10-10-10-10-10-10-10--------------------10-10-13-13-13-13-13-13-|
-9-99-9/11-11-11-11-11-11-11-/12-12-12-12-12-12-11-11-11-11-11-11-11-11-|
-x-xx-x--x--x--x--x--x--x--x-/-x--x--x--x--x--x--x--x--x--x--x--x--x--x-|
-7-77-7/-9--9--9--9--9--9--9-/10-10-10-10-10-10--9--9--9--9--9--9--9--9-|
------------------------------------------------------------------------|


bridge
------------------------------------|
-8------8-8/10--10----------10------|
-9------9-9-11--11-12-12-12-11------|
-x------x-x--x---x--x--x--x--x------|
-7------7-7--9---9-10-10-10--9------|
------------------------------------|



bridge
--------------------------------------------|
-8------8-8/10--10--------------------------|
-9------9-9-11--11/12-12-12-12---7777777777-|
-x------x-x--x---x/-x--x--x--x-x-7777777777-|
-7------7-7--9---9/10-10-10-10-x-5555555555-|
-------------------------------x-5555555555-|



bridge
-0-------3--------------0-------3------------------0------3------------|
-0-------3---7-77-------0-------3---7-77-----------0------3---7-77-----|
-4-------4---7-77-------4-------4---7-77-----------4------4---7-77-----|
-5---4-5-5---7-77-------5---4-5-5---7-77-----PM----5--4-5-5---7-77-----|
-2---4-5-5-x-5-55----0--2---4-5-5-x-5-55-7\--====--2--4-5-5-x-5-55-7\--|
-0--02-3-3-x------12\0--0--02-3-3-x--------0-0000--0-02-3-3-x--------0-|



bridge
0------3-------------------------------------------------------|
0------3---7-77------------------------------------------------|
4------4---7-77----------------------------------9----9----9---|
5--4-5-5---7-77---------------------------999999-9-xx-9-xx-9-x-|
2--4-5-5-x-5-55-7\0-2222-3333-5555-6666-77777777-7-xx-7-xx-7-x-|
0-02-3-3-x--------0-0000-0000-0000-0000-00000000---xx---xx---x-|


bridge
------------------------------------|
------------------------------------|
------------------------------------|
-9999999999999999-------------------|
-9999999999999999-x\pick------------|
-7777777777777777-x\\scrape---------|


OUTRO
|----------------------------------------------------|-------------|
|---------------55555555555-------------------------:|-------------|
|---------------55555555555-44444444444-77777777777--|-------9-----|
|---22222222222-55555555555-55555555555-44444444444--|-------9-----|
|---22222222222-33333333332-55555555555-55555555555-:|-------7-----|
|---00000000000-33333333333-33333333333-55555555555--|-------7-----|
Tap to rate this tab
 
# A B C D E F G H I J K L M N O P Q R S T U V W X Y Z