Song name
# A B C D E F G H I J K L M N O P Q R S T U V W X Y Z

Afi - Dream Of Waking tab

A Fire Inside,
Dream of Waking


INTRO
-----------------------------------------------------------------|
-----------------------------------------------------------------|
-----pm----------------------------------------------------------|
-8-9-===========-x-9-10-===========-12-12-12-===========-x-13-13-|
-7-7-xxxxxxxxxxx-x-8--8-xxxxxxxxxxx-10-10-10-xxxxxxxxxxx-x-10-10-|
-0-0-00000000000-x------00000000000----------00000000000-x-------|


INTRO
--------------------------------------------------------------------------------|
--------------------------------------------------------------------------------|
-pm-----------------------------------------------------------15-15-15-15-15-15-|
===========-89-===========-9-10-===========-12-12-===========-xx-xx-xx-xx-xx-xx-|
xxxxxxxxxxx-77-xxxxxxxxxxx-8--8-xxxxxxxxxxx-10-10-xxxxxxxxxxx-13-13-13-13-13-13-|
00000000000-00-00000000000------00000000000-------00000000000-/////////////////-|
                                                              Speed pick

INTRO
|------------------------------------------------------------------------|
|------------------------------------------------------------------------|
|------------------------------------------------------------------7-----|
|----------9--9--------7--7------9------------9--9-------7--7------0-0---|
|--7--7--7------10--10------9--9--10--7--7--7------10--10-----9--9-------|
|------------------------------------------------------------------------|



INTRO
---------------------------------------------------------------------|
---------------------------------------------------------------------|
------------------------------------------------------------------7--|
-----------9--9---------7--7--------9------10-x-x-x--12---9\------7--|
--7--7--7-------10--10--------9--9-----10--10-x-x-x--10--10\-xxx--5--|
-------------------------------------------------------------xxx--5--|


verse
------------------------------------------------------|
------------------------------------------------------|
---------------------------------------7---7----------|
-----9------------9-------------9----xx7-xx7-----9----|
-777---10-----777---10------777---10-xx5-xx5-777---10-|
-000----------000-----------000------xx5-xx5-000------|



verse
------------------------------------------------------------------------------|
------------------------------------------------------------------------------|
---------------------------------------7---7----------------------------------|
-----9------------9-------------9----xx7-xx7-----9--9--9--9--9--9--9--9--9--9-|
-777---10-----777---10------777---10-xx5-xx5-777---10-10-10-10-10-10-10-10-10-|
-000----------000-----------000------xx5-xx5-000------------------------------|



PRE-chorus
-------------------------------------------------------------|
--8888-------8888-------8888---------------------------------|
--9999-55----9999-55-77-9999-55-----7-77---------------------|
--9999-55-55-9999-55-77-9999-55-55--7-77---9--pm------99999--|
--7777-33-55-7777-33-55-7777-33-55--5-55-x-9-=========99999--|
--7777-33-33-7777-33-55-7777-33-33--5-55-x-7-77777777777777--|


PRE-chorus
-------------------------------------------------------------------------------|
-------------------------------------------------------------------------------|
-------------------------------------------------15-15-15-15-15-15-15-15-15-15-|
-----pm-------------------------------------------x--x--x--x--x--x--x--x--x--x-|
--77-==========-99-===========-10-10-===========-13-13-13-13-13-13-13-13-13-13-|
--00-0000000000-00-00000000000--0--0-00000000000--0--0--0--0--0--0--0--0--0--0-|
                                                  /////////////////////////////
                                                  *speed pick
PRE-chorus
-0000000000000000-------------------|
-5555555555555555-------------------|
-////////////////-------------------|
------------------------------------|
------------------------------------|
------------------------------------|



chorus
------------------------------------------------------------------------------|
------------------------------------------------------------------------------|
-99-11-11-11-12---14-14-------7777777--99-11-11-11-12---14-14-------7777777---|
-xx--x--x--x--x-x--x--x-55555-7777777--xx--x--x--x--x-x--x--x-55555-7777777---|
-77--9--9--9-10-x-12-12-55555-5555555--77--9--9--9-10-x-12-12-55555-5555555---|
------------------------33333-5555555-------------------------33333-5555555---|


chorus
-------------------------------------------------------------------------------|
-------------------------------------------------------------------------------|
--14-14-12-12-12-11--99-------7777777-99-11-11-11-12---14-14---------7---------|
---x--x--x--x--x--x--xx-55555-7777777-xx--x--x--x--x-x--x--x-55555-x-7-x-88888-|
--12-12-10-10-10--9--77-55555-5555555-77--9--9--9-10-x-12-12-55555-x-5-x-88888-|
------------------------33333-5555555------------------------33333-x-5-x-66666-|



|------------------------------------------------------------------------|
|------------------------------------------------------------------------|
|------------------------------------------------------------------7-----|
|----------9--9--------7--7------9------------9--9-------7--7------0-0---|
|--7--7--7------10--10------9--9--10--7--7--7------10--10-----9--9-------|
|------------------------------------------------------------------------|





---------------------------------------------------------------------|
---------------------------------------------------------------------|
------------------------------------------------------------------7--|
-----------9--9---------7--7--------9------10-x-x-x--12---9\------7--|
--7--7--7-------10--10--------9--9-----10--10-x-x-x--10--10\-xxx--5--|
-------------------------------------------------------------xxx--5--|




verse
------------------------------------------------------|
------------------------------------------------------|
---------------------------------------7---7----------|
-----9------------9-------------9----xx7-xx7-----9----|
-777---10-----777---10------777---10-xx5-xx5-777---10-|
-000----------000-----------000------xx5-xx5-000------|



verse
-------------------------harm.------------------------------------------------|
-------------------------(7)--------------------------------------------------|
-----------99----------9---------------7---7----------------------------------|
-----9------------9-------------9----xx7-xx7-----9--9--9--9--9--9--9--9--9--9-|
-777---10-----777---10------777---10-xx5-xx5-777---10-10-10-10-10-10-10-10-10-|
-000----------000-----------000------xx5-xx5-000------------------------------|


PRE-chorus
-------------------------------------------------------------|
--8888-------8888-------8888---------------------------------|
--9999-55----9999-55-77-9999-55-----7-77---------------------|
--9999-55-55-9999-55-77-9999-55-55--7-77---9--pm------99999--|
--7777-33-55-7777-33-55-7777-33-55--5-55-x-9-=========99999--|
--7777-33-33-7777-33-55-7777-33-33--5-55-x-7-77777777777777--|


PRE-chorus
-------------------------------------------------------------------------------|
-------------------------------------------------------------------------------|
-------------------------------------------------15-15-15-15-15-15-15-15-15-15-|
-----pm-------------------------------------------x--x--x--x--x--x--x--x--x--x-|
--77-==========-99-===========-10-10-===========-13-13-13-13-13-13-13-13-13-13-|
--00-0000000000-00-00000000000--0--0-00000000000--0--0--0--0--0--0--0--0--0--0-|
                                                  /////////////////////////////
                                                  *speed pick

PRE-chorus
-0000000000000000-------------------|
-5555555555555555-------------------|
-////////////////-------------------|
------------------------------------|
------------------------------------|
------------------------------------|



chorus
------------------------------------------------------------------------------|
------------------------------------------------------------------------------|
-99-11-11-11-12---14-14-------7777777--99-11-11-11-12---14-14-------7777777---|
-xx--x--x--x--x-x--x--x-55555-7777777--xx--x--x--x--x-x--x--x-55555-7777777---|
-77--9--9--9-10-x-12-12-55555-5555555--77--9--9--9-10-x-12-12-55555-5555555---|
------------------------33333-5555555-------------------------33333-5555555---|


chorus
---------------------------------------------------------------------------------|
---------------------------------------------------------------------------------|
--14-14-12-12-12-11--99-------7777777-99-11-11-11-12---14-14---------7-----------|
---x--x--x--x--x--x--xx-55555-7777777-xx--x--x--x--x-x--x--x-55555-x-7-x-88888-2-|
--12-12-10-10-10--9--77-55555-5555555-77--9--9--9-10-x-12-12-55555-x-5-x-88888-2-|
------------------------33333-5555555------------------------33333-x-5-x-66666-0-|



BRIDGE
------------------------------------------0-----------------------------------|
------------------------------------------------------------------------------|
-------------------------pm-----------(9)----(9)------------------------------|
-2-2-------5-------8-----==------==----harm.-----(9)-==------==----9----==----|
-2-2-------5-------8-----22-=====22------------------22-=====22--7---10-22----|
-0-0-------3-------6-----00-0000000------------------00-0000000---------00----|


BRIDGE
----------------------------------------------------------------------|
----------------------------------------------------------------------|
-----------(9)------(9)-(7)-----------------7/999-7/999-7/999-7/999---|
------==-------(9)-----------==---------==--x-xxx-x-xxx-x-xxx-x-xxx---|
-=====22---------------------22----=====22--5/777-5/777-5/777-5/777---|
-0000000---------------------00----0000000----------------------------|



OUTRO
-------------------------------------------------------|
-------------------------------------------------------|
------7/9999999-----------7/999------7/9999999-12------|
--2---x-xxxxxxx--2----5---x-xxx--2---x-xxxxxxx-12--12--|
--2---5/7777777--2--=-5---5/777--2---5/7777777-10--12--|
--0-0------------0--0-3-0--------0-0-----------10--10--|



OUTRO
----------------------------------------------------------------------------|
----------------------------------------------------------------------------|
------7/9999999-----------7/999------7/9999999-12------12--14-15------------|
--2---x-xxxxxxx--2----5---x-xxx--2---x-xxxxxxx-12--12--12--14-15---2--------|
--2---5/7777777--2--=-5---5/777--2---5/7777777-10--12--10--12-13---2--------|
--0-0------------0--0-3-0--------0-0-----------10--10--10--12-13---0--------|
Tap to rate this tab
 
# A B C D E F G H I J K L M N O P Q R S T U V W X Y Z