Song name
# A B C D E F G H I J K L M N O P Q R S T U V W X Y Z

Afi - Morningstar tab

A Fire Inside:
Morningstar

INTRO/VERSE
|----------------------------------------------------------------------|
|:--PM----------------------------------------------------------------:|
|---================================================================---|
|---9999999999999999666666666666666622222222111111112222222222222222---|
|:--7777777766666666444444444444444400000000222222224444444444444444--:|
|----------------------------------------------------------------------|


VERSE
-------------------------------------------------------------------------|
-PM----------------------------------------------------------------------|
-================================================------------------------|
-999999999999999966666666666666662222222211111111---2----4----66666666---|
-777777776666666644444444444444440000000022222222-4---44---44-44444444---|
-----------------------------------------------------------------------0-|


CHORUS
-------------------------4------------------------------------|
-------------------------5------------------------------------|
---------------8-----6---6-6---9---9----------6---------8-----|
-4---4-----9---9-----6-6-6-6---9---9------7---7-----9---9-----|
-4-4-4-4---9-9-9-9---4-4---4---7-7---7----7-7-7-7---9-9-9-9---|
-2-2---2-0-7-7---7-0---4---4-0---7---7-0--5-5---5-0-7-7---7-0-|


CHORUS
----------------------|
----------------------|
-PM-------------------|
-======-6666666666----|
-444444-4444444444-0--|
-------------------0--|


VERSE
|----------------------------------------------------------------------|
|:--PM----------------------------------------------------------------:|
|---================================================================---|
|---9999999999999999666666666666666622222222111111112222222222222222---|
|:--7777777766666666444444444444444400000000222222224444444444444444--:|
|----------------------------------------------------------------------|


VERSE
-------------------------------------------------------------------------|
-PM----------------------------------------------------------------------|
-================================================------------------------|
-999999999999999966666666666666662222222211111111---2----4----66666666---|
-777777776666666644444444444444440000000022222222-4---44---44-44444444---|
-----------------------------------------------------------------------0-|


CHORUS
-------------------------4------------------------------------|
-------------------------5------------------------------------|
---------------8-----6---6-6---9---9----------6---------8-----|
-4---4-----9---9-----6-6-6-6---9---9------7---7-----9---9-----|
-4-4-4-4---9-9-9-9---4-4---4---7-7---7----7-7-7-7---9-9-9-9---|
-2-2---2-0-7-7---7-0---4---4-0---7---7-0--5-5---5-0-7-7---7-0-|


CHORUS
-----------5----4------------|
------4----4----4---7---5----|
------6----6----6---X---X----|
-6666---66---66---6-6-6-6-6--|
-4444---44---44---4-4-4---4--|
-----------------------------|



CHORUS
-------------------------4------------------------------------|
-------------------------5------------------------------------|
---------------8-----6---6-6---9---9----------6---------8-----|
-4---4-----9---9-----6-6-6-6---9---9------7---7-----9---9-----|
-4-4-4-4---9-9-9-9---4-4---4---7-7---7----7-7-7-7---9-9-9-9---|
-2-2---2-0-7-7---7-0---4---4-0---7---7-0--5-5---5-0-7-7---7-0-|



CHORUS
----------------------|
----------------------|
-PM-------------------|
-======-6666666666----|
-444444-4444444444-0--|
-------------------0--|



BRIDGE “…And I don’t want to die tonight…”
-----------------------------------------|
-----------------------------------------|
-=======---=======---========------------|
-6666666---4444444---22222222--=======---|
-4444444-=-2222222-=-00000000=-4444444-=-|
---------0---------0---------0-2222222-0-|


BRIDGE
-----------------------------------------------|
-----------------------------------------------|
-=======---=======---========------------------|
-6666666---4444444---22222222------------------|
-4444444-=-2222222-=-00000000-=--777---999-----|
---------0---------0----------0--777-0-777-0---|


BRIDGE
-----------------------------------------------------------------------|
-----------------------------------------------------------------------|
-6666666---4444444---22222222------------6666666-4444444-2-------------|
-6666666---4444444---22222222--4444444---6666666-4444444-2-------------|
-4444444---2222222---00000000--4444444---4444444-2222222-0-------------|
-4444444-0-2222222-0-000000000-2222222-0-4444444-2222222-0-------------|


HEAVY OUTRO PART, w/ DISTORTION
--------------------------------------------|
---------------------------5555555555555555-|
-PICK-----4-44---4-4-4-4---6666666666666666-|
-SLIDE----2-22---4-4-4-4---6666666666666666-|
-X\\\-0---2-220--2-2-2-2-0-4444444444444444-|
-X\\\-0---0-000--2-2-2-2-0-4444444444444444-|



CHORUS OUTRO
-------------------------4------------------------------------|
-------------------------5------------------------------------|
---------------8-----6---6-6---9---9----------6---------8-----|
-4---4-----9---9-----6-6-6-6---9---9------7---7-----9---9-----|
-4-4-4-4---9-9-9-9---4-4---4---7-7---7----7-7-7-7---9-9-9-9---|
-2-2---2-0-7-7---7-0---4---4-0---7---7-0--5-5---5-0-7-7---7-0-|



CHORUS OUTRO
-----------5----4------------|
------4----4----4---7---5----|
------6----6----6---X---X----|
-6666---66---66---6-6-6-6-6--|
-4444---44---44---4-4-4---4--|
-----------------------------|



CHORUS OUTRO
-------------------------4---------------------------------------|
-------------------------5---------------------------------------|
---------------8-----6---6-6---9---9----------6------------------|
-4---4-----9---9-----6-6-6-6---9---9------7---7-----9------------|
-4-4-4-4---9-9-9-9---4-4---4---7-7---7----7-7-7-7---9-/11--------|
-2-2---2-0-7-7---7-0---4---4-0---7---7-0--5-5---5-0-7-/-9--------|
Tap to rate this tab
 
# A B C D E F G H I J K L M N O P Q R S T U V W X Y Z