Song name
# A B C D E F G H I J K L M N O P Q R S T U V W X Y Z

Afi - Despair Factor tab

A Fire Inside, The Despair Factor

INTRO
------------------------------------------|
------------------------------------------|
-------4-6-9-99---4-6-444---4-6-777---444-|
-222---5-7-9-99---5-7-555---5-7-888---555-|
-222-x-5-7-7-77-x-5-7-555---5-7-888-x-555-|
-000-0-3-5-7-77-0-3-5-333-0-3-5-666-0-333-|


INTRO
----------------------------------------------------------------------|
----------------------------------------------------------------------|
-------4-6-9-99---4-6-444---4-6-7777777--------------------4444444444-|
-222---5-7-9-99---5-7-555---5-7-7777777--------------------2222222222-|
-222-x-5-7-7-77-x-5-7-555---5-7-5555555x-----5-----7-----5-2222222222-|
-000-0-3-5-7-77-0-3-5-333-0-3-5-55555550-0^3---0^5---0^3---0000000000-|


INTRO
----------------------|
----------------------|
999\\-----------------|
999\\\----------------|
777\\\\---------------|
--------0-12\-0-00-00-|



VERSE
---------------------------------------------------------------|
---------------------------------------------------------------|
---------------------------------------------------------------|
--=-=-====-=-=-====--=-=-==========-=-=-===-=====-===========--|
--2-2-xxxx-2-2-xxxx--5-5-5555555555-5-5-555-55555-99999999999--|
--0-0-0000-0-0-0000--3-3-3333333333-5-5-555-55555-77777777777--|



VERSE
---------------------------------------------------------------|
---------------------------------------------------------------|
--pm-----------------------------------------------------0-----|
--=-=-====-=-=-====--=-=-==========-=-=-===-=====-----0--------|
--2-2-xxxx-2-2-xxxx--5-5-5555555555-5-5-555-55555--9-----------|
--0-0-0000-0-0-0000--3-3-3333333333-5-5-555-55555--7-----------|


VERSE
|------------------------------------------|
|:----------------------------------------:|
|--------4444-00000-4-2--777777777---------|
|---222222222-00000--0---444444444-9---9---|
|:--222222222-xxxxx----x-555555555-9-9----:|
|---00000-----33333----3-555555555-7-------|




CHORUS
|----------------------------------------------------------| “MY WHOLE LIFE
|:--5555555555-8888888888-77777777777777777777-------------|    IS A DARK ROOM.
|---5555555555-9999999999-77777777777777777777-------------|  ONE. BIG.
|---5555555555-9999999999-77777777777777777777-------------|    DARK.
|:--3333333333-7777777777-55555555555555555555-------------|        ROOM.”
|---3333333333-7777777777-55555555555555555555-------------|


INTERLUDE
------------------------------------------|
------------------------------------------|
-------4-6-9-99---4-6-444---4-6-777---444-|
-222---5-7-9-99---5-7-555---5-7-888---555-|
-222-x-5-7-7-77-x-5-7-555---5-7-888-x-555-|
-000-0-3-5-7-77-0-3-5-333-0-3-5-666-0-333-|


INTERLUDE
----------------------------------------------------------------------|
----------------------------------------------------------------------|
-------4-6-9-99---4-6-444---4-6-7777777--------------------4444444444-|
-222---5-7-9-99---5-7-555---5-7-7777777--------------------2222222222-|
-222-x-5-7-7-77-x-5-7-555---5-7-5555555x-----5-----7-----5-2222222222-|
-000-0-3-5-7-77-0-3-5-333-0-3-5-55555550-0^3---0^5---x-3---0000000000-|


INTERLUDE
----------------------|
----------------------|
999\\-----------------|
999\\\----------------|
777\\\\---------------|
--------0-12\-0-00-00-|



VERSE
|------------------------------------------|
|:----------------------------------------:|
|--------4444-00000-4-2--777777777---------|
|---222222222-00000--0---444444444-9---9---|
|:--222222222-xxxxx--x-x-555555555-9-9----:|
|---00000-----33333----3-555555555-7-------|




CHORUS
|------------------------------------------------|
|:--5555555555-8888888888-77777777777777777777--:|
|---5555555555-9999999999-77777777777777777777---|
|---5555555555-9999999999-77777777777777777777---|
|:--3333333333-7777777777-55555555555555555555--:|
|---3333333333-7777777777-55555555555555555555---|




BRIDGE
|----0-----0-----10------8-----7------------------------------------|
|:-----8-----8------8------8-----8-----8----8---10---7----7----7---:|
|--9-----9-----9------9------9-------7---77---7----7---77---77---7--|
|-------------------------------------------------------------------|
|:-----------------------------------------------------------------:|
|-------------------------------------------------------------------|




BRIDGE
||---0-----0-----10------8-----7------------------------------|
||-----8-----8------8------8-----8----------------------------|
||-9-----9-----9------9------9------77777777777777--QUICK-----|
||----------------------------------00000000000000---REST-----|
||------------------------------------------------------------|
||------------------------------------------------------------|



BRIDGE
-------------------------------------------------|
----0--------------------------------------------|
----0-----4----2----0---0000-222---777-999-11\---|
--2-2-4-5---55---55---5-0000-000---xxx-xxx--x\---|
--2---------------------xxxx-xxx---555-777--9\---|
--0---------------------3333-333-3-------------0-|



BRIDGE
-------------------------------------------------|
----0--------------------------------------------|
----0-----4----2----0---00000000-----------------|
--2-2-4-5---55---55---5-00000000-777777----------|
--2---------------------55555555-555555---slide--|
--0---------------------33333333-555555-12\------|



BRIDGE
-------------------------------------------------|
----0--------------------------------------------|
----0-----4----2----0---0000-222---777-999-11\---|
--2-2-4-5---55---55---5-0000-000---xxx-xxx--x\---|
--2---------------------xxxx-xxx---555-777--9\---|
--0---------------------3333-333-3-------------0-|



BRIDGE
------------------------------------------|
----0-------------------------------------|
----0-----4----2----0---00000000----------|
--2-2-4-5---55---55---5-00000000-77777777-|
--2---------------------55555555-55555555-|
--0---------------------33333333-55555555-|



BRIDGE
------------------------------------------------------|
------------------------------------------------------|
--pm---12-12\11-11\9------11-11/14\12--0000-----------|
--===---x--x--x--x-x--===--x--x--x--x--0000-----------|
--222--10-10\-9--9\7--222--9--9/12\10--5555-55555555--|
--000-----------------000--------------3333-22222222--|



BRIDGE
------------------------------------------------------|
------------------------------------------------------|
--pm---12-12\11-11\9-------7-7/9-9-----0000-----------|
--===---x--x--x--x-x--===--x-x-x-x-----0000-----------|
--222--10-10\-9--9\7--222--5-5/7-7-x---5555-55555555--|
--000-----------------000----------0---3333-22222222--|



BRIDGE
------------------------------------------------------|
------------------------------------------------------|
--pm---12-12\11-11\9------11-11/14\12--0000-----------|
--===---x--x--x--x-x--===--x--x--x--x--0000-----------|
--222--10-10\-9--9\7--222--9--9/12\10--5555-55555555--|
--000-----------------000--------------3333-22222222--|



BRIDGE
------------------------------------------------------0----------|
------------------------------------------------------0----------|
--pm---12-12\11-11\9--------8-8/10-----0000-----------4----------|
--===---x--x--x--x-x--===---x-x/-x-----0000-----------2----------|
--222--10-10\-9--9\7--222---7-7/-9-----5555-55555555--2----------|
--000-----------------000-----------0--3333-22222222--0----------|



OUTRO
----0-----0-----10------8-----7-----------------------------------||
------8-----8------8------8-----8-----8----8---10---7-------------||
--9-----9-----9------9------9-------7---77---7----7-7-------------||
----------------------------------------------------0-------------||
------------------------------------------------------------------||
------------------------------------------------------------------||
Tap to rate this tab
 
# A B C D E F G H I J K L M N O P Q R S T U V W X Y Z