Song name
# A B C D E F G H I J K L M N O P Q R S T U V W X Y Z

Afi - Wester tab

A Fire Inside,
Wester


INTRO
----------------------------------------------|
-------3-4-6-------4-3----------346-----------|
-------3-3-3-------3-3-5--------333-------888-|
-5-===-------3-===--------5-===------66---888-|
-3-333-------1-111--------3-333------66-8-666-|
---333---------111----------333------44-6-666-|


INTRO
------------------------------------------------------------------------|
-------3-4-6-------4-3----------346-------------------------------------|
-------3-3-3-------3-3-5--------333-------88-pm-------------------------|
-5-===-------3-===--------5-===------66---88-======================-----|
-3-333-------1-111--------3-333------66-8-66-8888888888888888888888\\10-|
---333---------111----------333------44-6-66-6666666666666666666666\\-8-|


VERSE
--------------------------------------------|
-------------------------9------------------|
--rest------5---x\--5----x------------------|
------------x---x\\-5--x-6-8888888888888888-|
------------3-----\\3--x---8888888888888888-|
--------------------3------6666666666666666-|


VERSE
----------------------------------------------------------------------|
------------------------------------9-9-------------------------------|
--55555555555------8-----55555-3-5--8-8---88---55555555555------8-----|
--55555555555-66---8---8-55555-3-5--6-6---88---55555555555-66---8---8-|
--33333333333-66-x-6-x-8-33333----3-6-6-6-66-x-33333333333-66-x-6-x-8-|
--33333333333-44-x-6-x-6-33333---------------x-33333333333-44-x-6-x-6-|


VERSE
----------------------------------------------|
----------------------------------------------|
--55-555-55-55-5-44-444-44-44-44-44444444444--|
--66-666-66-66-6-55-555-55-55-55-00000000000--|
--66-666-66-66-6-55-555-55-55-55-55555555555--|
--44-444-44-44-4-33-333-33-33-33-33333333333--|


CHORUS
|------------------------------------------------|------------------|
|:----------------------------------------------:|--4444-----4--3---|
|---55555555555-8888888888-----------------888---|--5555-X-5-5--3---|
|---55555555555-8888888888-88888888888-666-888---|--5555-6-5-5=-3---|
|:--33333333333-6666666666-88888888888-666-666--:|--3333-3----3-----|
|---33333333333-6666666666-66666666666-444-666---|------------------|


--------------------------------------------------------------------|
-------3-4-6-------4-3----------346---------------------------------|
-------3-3-3-------3-3-5--------333-------88-pm---------------------|
-5-===-------3-===--------5-===------66---88-====================---|
-3-333-------1-111--------3-333------66-8-66-8888888888888888888888-|
---333---------111----------333------44-6-66-6666666666666666666666-|


VERSE
----------------------------------------------------------------------|
------------------------------------9-9-------------------------------|
--55555555555------8-----55555-3-5--8-8---88---55555555555------8-----|
--55555555555-66---8---8-55555-3-5--6-6---88---55555555555-66---8---8-|
--33333333333-66-x-6-x-8-33333----3-6-6-6-66-x-33333333333-66-x-6-x-8-|
--33333333333-44-x-6-x-6-33333---------------x-33333333333-44-x-6-x-6-|


VERSE
----------------------------------------------|
----------------------------------------------|
--55-555-55-55-5-44-444-44-44-44-44444444444--|
--66-666-66-66-6-55-555-55-55-55-00000000000--|
--66-666-66-66-6-55-555-55-55-55-55555555555--|
--44-444-44-44-4-33-333-33-33-33-33333333333--|


CHORUS
|------------------------------------------------|------------------|
|:----------------------------------------------:|--4444-----4------|
|---55555555555-8888888888-----------------888---|--5555-X-5-5------|
|---55555555555-8888888888-88888888888-666-888---|--5555-6-5-5------|
|:--33333333333-6666666666-88888888888-666-666--:|--3333-3----------|
|---33333333333-6666666666-66666666666-444-666---|------------------|


BRIDGE
|------------------------------------|--------------------------||
|:----------------------------------:|:-------------4444-------:||
|--===-===-==-------===-===-==-------|--5555--------3333-333-4--||
|--555-333-66-=-==--666-555-88---==--|--5555-55-6-X-1111-333-4--||
|:-333-333-33-3-66--666-666-66-=-88-:|:-3333-55-6-X-1111-111-2-:||
|-------------3-44-------------6-66--|--3333-33-4-X-------------||


BRIDGE OUTRO
--------------|
--------------|
-5----------7-|
-6----------8-|
-6----------8-|
-4----------6-|


CHORUS
|------------------------------------------------|------------------|
|:----------------------------------------------:|--4444-----4------|
|---55555555555-8888888888-----------------888---|--5555-X-5-5------|
|---55555555555-8888888888-88888888888-666-888---|--5555-6-5-5------|
|:--33333333333-6666666666-88888888888-666-666--:|--3333-3----------|
|---33333333333-6666666666-66666666666-444-666---|------------------|
Tap to rate this tab
 
# A B C D E F G H I J K L M N O P Q R S T U V W X Y Z