Song name
# A B C D E F G H I J K L M N O P Q R S T U V W X Y Z

Afi - Of Greetings And Goodbyes tab

A Fire Inside, Of Greetings And Goodbyes

INTRO
------------------------------------ ----------------------------------|
------------------------------------ ----------------------------------|
-9\-----5----------7---------------- 9\-----5-----------7--------------|
-9\-----5-5-555555-7----5-7--------- 9\-----5-5-5555555-7--------------|
-7\-----3-5-555555-5----5-7-------7\ 7\-----3-5-5555555-5----5-7-55555-|
----000---3-333333-5-00-3-5-0-000-0- ---000---3-3333333-5-00-3-5-22222-|


VERSE 1
-------3333-------------------------------------------------------------|
-------3333-3-5-5-------------------------------------------------------|
-rest--0000-2-4-4-------------7-7-----9-9------9-9-------------77777777-|
------------0-2-2-----5-5-----7-7-----9-9------9-9-----5-5-----77777777-|
------------0-2-2-XXX-5-5-XXX-5-5-XXX-7-7-XXXX-7-7-XXX-5-5-XXX-55555555-|
------------------XXX-3-3-XXX-5-5-XXX-7-7-XXXX-7-7-XXX-3-3-XXX-55555555-|


VERSE 1
--------------------------|
--------------------------|
7777777777777777777777777-
7777777777777777777777777-
5555555555555555555555555-
5555555555555555555555555-



CHORUS
|------------------------------------------------------------------|
|:----------------------------------------------------------------:|
|--99999---55555---77777---9999999-----------------77777-5555555---|
|--99999-X-55555-X-77777-X-9999999-9\------5555555-77777-5555555---|
|:-77777-X-33333-X-55555-X-7777777-7\------5555555-55555-3333333--:|
|--77777-X-33333-X-55555-X-7777777-7\-0000-3333333-55555-3333333---|



CHORUS OUTRO
-77777777777777777777777777777777777-
-88888888888888888888888888888888888-
-xxxxxxxxxxxxxxxxxxxxxxxxxxxxxxxxxxx-
-55555555555555555555555555555555555-
-------------------------------------|
-------------------------------------|


Verse-Interlude
------------------------------------ ----------------------------------|
------------------------------------ ----------------------------------|
-9\-----5----------7---------------- 9\-----5-----------7--------------|
-9\-----5-5-555555-7----5-7--------- 9\-----5-5-5555555-7--------------|
-7\-----3-5-555555-5----5-7-------7\ 7\-----3-5-5555555-5----5-7-55555-|
----000---3-333333-5-00-3-5-0-000-0- ---000---3-3333333-5-00-3-5-22222-|



VERSE 2
777-333-555===-====777-333-555-888-7777-777-333-555-===-===777-333-55X-|
===-===-===333-5555===-===-===-===-====-===-===-===-333-555===-===-===-|
PM---------------------------------------------------------------------|
-----------------------------------------------------------------------|
-----------------------------------------------------------------------|
-----------------------------------------------------------------------|



VERSE 2
-3333-----------------------------------------------------------|
-3333-3-5-------------------------------------------------------|
-0000-2-4-------------7-7-----9-9------9-9-------------77777777-|
------0-2-----5-5-----7-7-----9-9------9-9-----5-5-----77777777-|
------0-2-XXX-5-5-XXX-5-5-XXX-7-7-XXXX-7-7-XXX-5-5-XXX-55555555-|
----------XXX-3-3-XXX-5-5-XXX-7-7-XXXX-7-7-XXX-3-3-XXX-55555555-|



VERSE 2
-------------------------|
-------------------------|
7777777777777777777777777
7777777777777777777777777
5555555555555555555555555
5555555555555555555555555



CHORUS
|------------------------------------------------------------------|
|:----------------------------------------------------------------:|
|--99999---55555---77777---9999999-----------------77777-5555555---|
|--99999-X-55555-X-77777-X-9999999-9\------5555555-77777-5555555---|
|:-77777-X-33333-X-55555-X-7777777-7\------5555555-55555-3333333--:|
|--77777-X-33333-X-55555-X-7777777-7\-0000-3333333-55555-3333333---|



BRIDGE
--777-333-555-----0----------------------------------------------------|
--------------333-0----------------------------------------------------|
------------------X-----4---------4--------5--------4-----4----------4-|
------------------2-------5-----2--------2--------2---------5-55---2---|
------------------2---3---5-----------------------------3---5-55-------|
------------------0-------3---0--------0--------0-----------3----0-----|



BRIDGE
---------------------------------------------------------------------|
-----------------------------------------------------8888------------|
------5-------4----4--------777777777777777777777777-7777------------|
----2-5-----2--------555555-777777777777777777777777-5555------------|
-----------------3---555555-555555555555555555555555-----------------|
--0-------0----------333333-555555555555555555555555-----------------|



CHORUS
|------------------------------------------------------------------|
|:----------------------------------------------------------------:|
|--99999---55555---77777---9999999-----------------77777-5555555---|
|--99999-X-55555-X-77777-X-9999999-9\------5555555-77777-5555555---|
|:-77777-X-33333-X-55555-X-7777777-7\------5555555-55555-3333333--:|
|--77777-X-33333-X-55555-X-7777777-7\-0000-3333333-55555-3333333---|


-0----------------------------------|
-0--LET-----------------------------|
-X--RING----------------------------|
-2--INTO-OBLIVION-------------------|
-2----------------------------------|
-0----------------------------------|


++++++++++++++++++++++++++++++++++++++++++++++++++++++++++++++++++++++++

GUITAR TWO OUTRO SOLO
777-333-555--------777-333-555-888-7777-777-333-555--------777-333-555-|
-----------333-5555---------------------------------333-555------------|
-----------------------------------------------------------------------|
-----------------------------------------------------------------------|
-----------------------------------------------------------------------|
-----------------------------------------------------------------------|


GUITAR TWO OUTRO SOLO
-8^7--8^7---(7)-LET-RING------------|
------------------------------------|
------------------------------------|
------------------------------------|
------------------------------------|
------------------------------------|
++++++++++++++++++++++++++++++++++++++++++++++++++++++++++++++++++++++++
Tap to rate this tab
 
# A B C D E F G H I J K L M N O P Q R S T U V W X Y Z