Song name
# A B C D E F G H I J K L M N O P Q R S T U V W X Y Z

Afi - Sacrifice Theory tab

A Fire Inside, Sacrifice Theory


INTRO
-----7----------------------------------------------|
-7-----7--------------------------------------------|
-7-------7-------------------speed-pick-below-------|
-9---------9----7-9---9--9--99999999999999999999999-|
-9---------9----7-9---9--9--99999999999999999999999-|
-7---------7----7-7---7--7--77777777777777777777777-|



verse
|-----------------------------------------------|
|:---------------------------------------------:|
|--7-7---4-6--7-7---4-6--7-7---4-6-44444-66666--|
|--9-9---5-7--9-9---5-7--9-9---5-7-55555-77777--|
|:-9-9---5-7--9-9---5-7--9-9---5-7-55555-77777-:|
|--7-7-0-3-5--7-7-0-3-5--7-7-0-3-5-33333-55555--|



CHORUS
---------------------------------------|
---------------------------------------|
--777-6666-777777777-444444-7----------|
--777-7777-999999999-555555-7-77777777-|
--555-7777-999999999-555555-5-77777777-|
--555-5555-777777777-333333-5-55555555-|



CHORUS
---------------------------------------|
---------------------------------------|
--777-6666-777777777-444444-7----------|
--777-7777-999999999-555555-7-77774444-|
--555-7777-999999999-555555-5-77774444-|
--555-5555-777777777-333333-5-55552222-|


INTERLUDE
--------------------------------------------------------------|
--------------------------------------------------------------|
-444---4-6-----444---4-6-----444---4-6---44444-66666----------|
-444-X-5-7-X---444-X-5-7-X---444-X-5-7-X-55555-77777----------|
-222-X-5-7-X---222-X-5-7-X---222-X-5-7-X-55555-77777----------|
-222-X-3-5-X---222-X-3-5-X---222-X-3-5-X-33333-55555----------|


Verse 2
----------------------------------------------------------|
----------------------------------------------------------|
----------------------------------------------------------|
---pm-----=-=----pm-----=-=-----pm-----=-=-=-=-===-=====x-|
-=-====-=-5/7--=-====-=-5/7---=-====-=-5/7-5-5-555-77777x-|
-7-7777-0-3/5--7-7777-0-3/5---7-7777-0-3/5-3-2-333-55555x-|


Verse 2
---------------------------------------------|
---------------------------------------------|
-------4/6--------4/6--------4/6-44444-66666-|
-=-9---5/7--=-9---5/7--=-9---5/7-55555-77777-|
-9-9---5/7--9-9---5/7--9-9---5/7-55555-77777-|
-7-7-0-3/5--7-7-0-3/5--7-7-0-3/5-33333-55555-|



CHORUS
---------------------------------------|
---------------------------------------|
--777-6666-777777777-444444-7----------|
--777-7777-999999999-555555-7-77777777-|
--555-7777-999999999-555555-5-77777777-|
--555-5555-777777777-333333-5-55555555-|



CHORUS
---------------------------------------|
---------------------------------------|
--777-6666-777777777-444444-7----------|
--777-7777-999999999-555555-7-77774444-|
--555-7777-999999999-555555-5-77774444-|
--555-5555-777777777-333333-5-55552222-|




BRIDGE INTRO
------------------------------------|
------------------------------------|
--------------------------7777777---|
-PM-----------------------9999999---|
-=========================9999999---|
-77777777777777777777777777777777---|



BRIDGE
------------------------------------------------------------------------|
------------------------------------------------------------------------|
---------------------=======-----------------7----------77777-6666------|
-=======---=======-==7777777===========------9------5-0-77777-7777-x\---|
-9999999-=-5555555-xx5555555xx7777777xx-====-9-====-5-0-55555-7777-x\\--|
-7777777-0-3333333-xx5555555xx5555555xx-7777-7-3333-3---55555-5555---\\-|



BRIDGE
------------------------------------------------------------------------|
------------------------------------------------------------------------|
-7-7777-12-12-12-12-12-7-77777-66666666------7------4---77777-666666666-|
-9-9999-12-12-12-12-12-7-77777-77777777------9------5-0-77777-777777777-|
-9-9999-10-10-10-10-10-5-55555-77777777-====-9-====-5-0-55555-777777777-|
-7-7777-10-10-10-10-10---------55555555-7777-7-3333-3---55555-555555555-|



BRIDGE OUTRO
------------0-----------------------|
------------0-----------------------|
------------X-----------------------|
--5---------2-------5555-77777------|
--5---5-----2-------5555-77777------|
--3---2--0--0-------3333-55555------|



CHORUS
---------------------------------------|
---------------------------------------|
--777-6666-777777777-444444-7----------|
--777-7777-999999999-555555-7-77777777-|
--555-7777-999999999-555555-5-77777777-|
--555-5555-777777777-333333-5-55555555-|



CHORUS
---------------------------------------|
---------------------------------------|
--777-6666-777777777-444444-7----------|
--777-7777-999999999-555555-7-77774444-|
--555-7777-999999999-555555-5-77774444-|
--555-5555-777777777-333333-5-55552222-|


OUTRO
--------------------------------------------------------------|
--------------------------------------------------------------|
-444---4-6-----444---4-6-----444---4-6----7\-SLIDE-TO---------|
-444-X-5-7-X---444-X-5-7-X---444-X-5-7-X--9\--OBLIVION--------|
-222-X-5-7-X---222-X-5-7-X---222-X-5-7-X--9\------------------|
-222-X-3-5-X---222-X-3-5-X---222-X-3-5-X--7\------------------|
Tap to rate this tab
 
# A B C D E F G H I J K L M N O P Q R S T U V W X Y Z