Afi - Ever And A Day tab

A Fire Inside, Ever And A Day

INTRO
----------------------------------------------------------------|
----------------------------------------------------------------|
-888-777-88-555-888-10-10-12-12-12-10-10-10-88-10-10-10-888-77--|
-xxx-xxx-xx-xxx-xxx--x--x--x--x--x--x--x--x-xx--x--x--x-xxx-xx--|
-666-555-66-333-666--8--8-10-10-10--8--8--8-66--8--8--8-666-55--|
----------------------------------------------------------------|


INTRO
-------------------------------------------------------------|
-------------------------------------------------------------|
-888-777-88-555-888-10-10-12-12-12-12-12-13-13-13-10-10-10---|
-xxx-xxx-xx-xxx-xxx--x--x--x--x--x--x--x--x--x--x--x--x--x-x-|
-666-555-66-333-666--8--8-10-10-10-10-10-11-11-11--8--8--8-x-|
-----------------------------------------------------------x-|


INTRO
----------------|
----------------|
-pm-------------|
===========--x--
10-10-10-10--x--|
-8--8--8--8--0--|


INTRO
----------------------------------------------------------------|
----------------------------------------------------------------|
-888-777-88-555-888-10-10-12-12-12-10-10-10-88-10-10-10-888-77--|
-xxx-xxx-xx-xxx-xxx--x--x--x--x--x--x--x--x-xx--x--x--x-xxx-xx--|
-666-555-66-333-666--8--8-10-10-10--8--8--8-66--8--8--8-666-55--|
----------------------------------------------------------------|


INTRO
------------------------------------------------------------------------|
------------------------------------------------------------------------|
888777-88-555-888-10-10-12-12-12-12-12-13-13-13-10-10-10-10-10-10-10-10-|
xxxxxx-xx-xxx-xxx--x--x--x--x--x--x--x--x--x--x--x--x--x--x--x--x--x--x-|
666555-66-333-666--8--8-10-10-10-10-10-11-11-11--8--8--8--8--8--8--8--8-|
------------------------------------------------------------------------|


VERSE
|---------------------------------------------------------------------|
|:--------------------------------------------------------------------|
|-------5---------5-----------5---------5-----------8----------3------|
|---------------------------------------------------------------------|
|:-3333---333-333---33-0-3333---333-333---33-0-6666---666-1111---1----|
|------------------------------------------------------------------33-|


VERSE
---------------------------| |----------------------------------------|
--------------------------:| |----------------------------------------|
------5-----------5--------| |------8------------------------5555-----|
---------------------------| |----------------3333---===-55555555-X\--|
-3333---33-0-3333---33-0--:| |-6666---666-111-1111-O-333-33333333-X\\-|
---------------------------| |--------------------------------------\\|
                                                                  pick
                                                                  Scrape

Verse-interlude
-----------------------------------------------------------|
-----------------------------------------------------------|
-8888888\-3333333-3/5-55555555-12-12-10--8888888\333333333-|
-8888888\-3333333-3/5-55555555--x--x--x--8888888\333333333-|
-6666666\-1111111-1/3-33333333-10-10--8--6666666\111111111-|
-6666666\-1111111-1/3-33333333-----------6666666\111111111-|


Verse-interlude
------------------------------------|
-pm------44444444-------------------|
-====555555555555-------------------|
-5555555555555555-------------------|
-3333333333333333-------------------|
-3333333333333333-------------------|



VERSE w/ distortion
|--------------------------------------------------------------------|
|--------------------------------------------------------------------|
|------5---------5-----------5---------5-----------8----------3------|
|-====---===-===---==-=-====---===-===---==-=-====---===-====---=----|
|-3333---333-333---33-0-3333---333-333---33-0-6666---666-1111---1-==-|
|-----------------------------------------------------------------33-|


VERSE w/ distortion
------------------------|
------------------4---4-|
------5-------------5---|
-====---===--====-------|
-3333---333--3333-------|
------------------------|



VERSE w/ distortion
--------------------------------------------------------------------|
--------------------------------------------------------------------|
------5---------5-----------5---------5-----------8----------3------|
-====---===-===---==-=-====---===-===---==-=-====---===-====---=----|
-3333---333-333---33-0-3333---333-333---33-0-6666---666-1111---1-==-|
-----------------------------------------------------------------33-|


VERSE w/ distortion
---------------------------| |---------------------------------------|
--------------------------:| |---------------------------------------|
------5-----------5--------| |------8---------33-----------55555555--|
-====---===--====---===----| |-====---===-===-33-====-5555-55555555--|
-3333---333--3333---333---:| |-6666---666-111----3333-3333-33333333--|
---------------------------| |---------------------------------------|



CHORUS
-----------------------------------------------------------|
-----------------------------------------------------------|
-8888888\-3333333-3/5-55555555-12-12-10--8888888\333333333-|
-8888888\-3333333-3/5-55555555--x--x--x--8888888\333333333-|
-6666666\-1111111-1/3-33333333-10-10--8--6666666\111111111-|
-6666666\-1111111-1/3-33333333-----------6666666\111111111-|


CHORUS
---------------------------------------------------------------|
-44444444444444------------------------------------------------|
-55555555555555-77---8888888\-3333333-3/5-55555555-12-12-10----|
-55555555555555-XX---8888888\-3333333-3/5-55555555--x--x--x----|
-33333333333333-55---6666666\-1111111-1/3-33333333-10-10--8----|
-33333333333333------6666666\-1111111-1/3-33333333-------------|


CHORUS
------------------------------------|
------------------PM------44444444--|
8888888\333333333-====555555555555--|
8888888\333333333-5555555555555555--|
6666666\111111111-3333333333333333--|
6666666\111111111-3333333333333333--|


BRIDGE: “Oh! Ohhhhh!!!”
------------------------------------|
------------------------------------|
-QUICK-REST------5------------------|
--FOR-BASS-------X--X\-Pick---------|
-AND-DRUMS-------3--X\\scrape-------|
----------------------\\------------|



BRIDGE
|-----------------------|--------------------------------------|
|:---------------------:|--------------”WILL-YOU…”-------------|
|--3/5-555555----33-----|-pm---55555---------------------------|
|--3/5-555555-33-11-33--|-====-55555---------------------------|
|:-1/3-333333-11-11-11-:|-3333-33333---------------------------|
|--1/3-333333-11----11--|--------------------------------------|


"...BE MY..."
CHORUS
-----------------------------------------------------------|
-----------------------------------------------------------|
-8888888\-3333333-3/5-55555555-12-12-10--8888888\333333333-|
-8888888\-3333333-3/5-55555555--x--x--x--8888888\333333333-|
-6666666\-1111111-1/3-33333333-10-10--8--6666666\111111111-|
-6666666\-1111111-1/3-33333333-----------6666666\111111111-|


CHORUS
-------------------------------------------------------------|
-44444444444444----------------------------------------------|
-55555555555555-77-8888888\-3333333-3/5-55555555-12-12-10----|
-55555555555555-XX-8888888\-3333333-3/5-55555555--x--x--x----|
-33333333333333-55-6666666\-1111111-1/3-33333333-10-10--8----|
-33333333333333----6666666\-1111111-1/3-33333333-------------|


CHORUS
------------------------------------|
------------------4-----------------|
8--------3-3------5-----------------|
8--------3-3------5-----------------|
6--------1-1------3-----------------|
6--------1-1------3-----------------|
Tap to rate this tab
 
# A B C D E F G H I J K L M N O P Q R S T U V W X Y Z