Afi - The Nephilim tab

A Fire Inside, The Nephilim

intro
---------------------------------------------------------------------|
---------------------------------------------------------------------|
-------9-----(9)----------9-------------7-7/9------------------------|
--------------------------9-------------7-7/9------------------------|
-------7------------------7-------------5-5/7------------------------|
---------------------------------------------------------------------|


intro
------------------------------------|
------------------------------------|
-12-12-12-12-12---------------------|
-12-12-12-12-12--12-12-12-12-12-----|
-10-10-10-10-10--12-12-12-12-12-----|
-----------------10-10-10-10-10-----|


verse
--------------------------------------------------------------|
--------------------------------------------------------------|
------------------------------------------------777777--------|
--7-9----------7-9----------7-9----------5-55-5-777777--------|
--5-7-5--2222--5-7-5--2222--5-7-5--2222--5-55-5-555555--------|
--5-7-3-00000--5-7-3-00000--5-7-3-00000--3-33-3-555555--------|


verse
---------------------------------------------------------------------|
---------------------------------------------------------------------|
-----------------------------------------==-===-======-==-===-======-|
--7-9----------7-9----------7-9----------44-444-555555-44-444-555555-|
--5-7-5--2222--5-7-5--2222--5-7-5--2222--55-555-777777-55-555-777777-|
--5-7-3-00000--5-7-3-00000--5-7-3-00000------------------------------|


                                  chorus
--------------------------------|---------------------------------------|
--------------------------------|---------------------------------------|
-==-===--------7-----pick-slide-|-----------777777777----9\-------------|
-44-444-555555-7----x\----------|-5555555555777777777----9\-2-2-x-xx-22-|
-55-555-777777-5----x\\---------|-5555555555555555555xxx-7\-2-2-x-xx-22-|
--------000000-5------\\--------|-3333333333555555555xxx-7\-0-0-x-xx-00-|


chorus
------------------|
------------------|
-------12\---7--9-|
-xxxx---x----x--x-|
-xxxx--10\---5--7-|
-xxxx-------------|


chorus
---------------------------------------------------------------------|
---------------------------------------------------------------------|
----------777777777----9\-------------------12-14-11-11-11-11-11-----|
5555555555777777777----9\-2-2-x-xx-22--xxxx--x--x--x--x--x--x--x-----|
5555555555555555555xxx-7\-2-2-x-xx-22--xxxx-10-12--9--9--9--9--9-----|
3333333333555555555xxx-7\-0-0-x-xx-00--xxxx--------------------------|


interlude
------------------------------------------------------------------------|
-----------------------------------------------------------------*------|
-----------7------------7------------7-----------7-77777777777--11---14-|
-----5---9---5----5---9---5----5---9---5---5---9---77777777777---x----x-|
--77---7--------7---7-------77---7-------7---7-----55555555555---9---12-|
---------------------------------------------------55555555555----------|
                                                                *speed
                                                                 pick

verse
--------------------------------------------------------------|
--------------------------------------------------------------|
------------------------------------------------777777--------|
--7-9----------7-9----------7-9----------5-55-5-777777--------|
--5-7-5--2222--5-7-5--2222--5-7-5--2222--5-55-5-555555--------|
--5-7-3-00000--5-7-3-00000--5-7-3-00000--3-33-3-555555--------|


verse
---------------------------------------------------------------------|
---------------------------------------------------------------------|
-----------------------------------------==-===-======-==-===-======-|
--7-9----------7-9----------7-9----------44-444-555555-44-444-555555-|
--5-7-5--2222--5-7-5--2222--5-7-5--2222--55-555-777777-55-555-777777-|
--5-7-3-00000--5-7-3-00000--5-7-3-00000------------------------------|


                                  chorus
--------------------------------|---------------------------------------|
--------------------------------|---------------------------------------|
-==-===--------7-----pick-slide-|-----------77777777-----9\-------------|
-44-444-555555-7----x\----------|-555555555577777777-----9\-2-2-x-xx-22-|
-55-555-777777-5----x\\---------|-555555555555555555-xxx-7\-2-2-x-xx-22-|
--------000000-5------\\--------|-333333333355555555-xxx-7\-0-0-x-xx-00-|


chorus
------------------|
------------------|
-------12\---7--9-|
-xxxx---x----x--x-|
-xxxx--10\---5--7-|
-xxxx-------------|


chorus
---------------------------------------------------------------------|
---------------------------------------------------------------------|
----------777777777----9\-------------------12-14-11-11-11-11-11-----|
5555555555777777777----9\-2-2-x-xx-22--xxxx--x--x--x--x--x--x--x-----|
5555555555555555555xxx-7\-2-2-x-xx-22--xxxx-10-12--9--9--9--9--9-----|
3333333333555555555xxx-7\-0-0-x-xx-00--xxxx--------------------------|


interlude
----------------------------------------------------------------------|
----------------------------------------------------------------------|
-----------7------------7------------7-----------7--9-----------------|
-----5---9---5----5---9---5----5---9---5---5---9----9-----------------|
--77---7--------7---7-------77---7-------7---7------7-----------------|
----------------------------------------------------7-----------------|


bridge
-----------------------------------------------------------------------|
-----------------------------------------------------------------------|
-(9)----5--------7-----9----5------------------------------9-----------|
-(9)----5----5---7-----9----5---5---harmonics-(5)----------x-----------|
-(7)----3-3--5---5-----7----3-3-5--(5)(5)--(5)-x-(5)(5)----7-----------|
-(7)----3-3--3---5-----7----3-3-3---2--2----2--2--2--2-----------------|



bridge
------------------------------------|
--88888888888-10--------------------|
--77777777777--9--------------------|
--55555555555--7--x\-pick-----------|
--55555555555--7--x\\-slide---------|
--------------------\\--------------|



chorus
--------------------------------------------------------|
--------------------------------------------------------|
------=---77777777-----9\--------------------12\---7--9-|
555555555577777777-----9\-2-2-x-xx-22--xxxx---x----x--x-|
555555555555555555-xxx-7\-2-2-x-xx-22--xxxx--10\---5--7-|
333333333355555555-xxx-7\-0-0-x-xx-00--xxxx-------------|




chorus
---------------------------------------------------------------------|
---------------------------------------------------------------------|
----------777777777----9\-------------------12-14-11-11-11-11-11-----|
5555555555777777777----9\-2-2-x-xx-22--xxxx--x--x--x--x--x--x--x-----|
5555555555555555555xxx-7\-2-2-x-xx-22--xxxx-10-12--9--9--9--9--9-----|
3333333333555555555xxx-7\-0-0-x-xx-00--xxxx--------------------------|



Pre-outro
---------------------------------------|
---------------------------------------|
---------------------pm----------------|
-5555555---44444444--========-33333333-|
-5555555-x-55555555--33333333-33333333-|
-3333333-x-22222222--11111111-11111111-|


outro
----------------------------------------------------------------------|
----------------------------------------------------------------------|
-----------7------------7------------7----------7--10--9-\------------|
-----5---9---5----5---9---5----5---9---5---5----7--10--9-\------------|
--77---7--------7---7-------77---7-------7---7--5---8--7-\------------|
------------------------------------------------5---8--7-\------------|
Tap to rate this tab
 
# A B C D E F G H I J K L M N O P Q R S T U V W X Y Z