Afi - The Lost Souls tab

A Fire Inside, The Lost Souls


BASS INTRO
|---------------------------------| ------|
|:---7----7----7----7----7---7---:| -5555-|
|:-----00---00---00---00---0---0-:| ------|
|---------------------------------| ------|


INTRO
----------------------------------------------------------------|
-----------------------------PM---------------------------PM----|
-----------------------------===========------------------==----|
---7-10-9-12-10-14-7-10-9-12-12-12-12-12--7-10-9-12-10-14-55-55-|
---0--0-0--0--0--0-0--0-0--0-10-10-10-10--0--0-0--0--0--0-55-55-|
----------------------------------------------------------33-33-|



INTRO
--speed-pick---
-in-triplets---
---------------|
-777777777777--|
-777777777777--|
-555555555555--|



VERSE 1, 3Xs
|---------------------------------------------|
|:-------------------------------------------:|
|----777-10-10-10-555-777---------------------|
|----777-10-10-10-555-777-88888888-77777777---|
|:---555--8--8--8-333-555-88888888-77777777--:|
|----555--8--8--8-333-555-66666666-55555555---|



VERSE 1
-------------------------------------------|
-------------------------------------------|
777-10-10-10-555-777----------555555555555-|
777-10-10-10-555-777-8-quick--555555555555-|
555--8--8--8-333-555-8--rest--333333333333-|
555--8--8--8-333-555-6--------333333333333-|



CHORUS: LOOK WHAT YOUVE DONE TO ME NOW………
------------------------------------------------------|
------------------------------------------------------|
-77777777-55555--------------10-10-10-10-10-10-10-10--|
-77777777-55555-5-7-88888888-10-10-10-10-10-10-10-10--|
-55555555-33333-5-7-88888888--8--8--8--8--8--8--8--8--|
-55555555-33333-3-5-66666666--8--8--8--8--8--8--8--8--|



CHORUS
-------------------------------------------------------------------------|
-------------------------------------------------------------------------|
-77777777-55555--------------10-10-10-10-12-12-12-12-77-7/10-10-10/12-12-|
-77777777-55555-5-7-88888888-10-10-10-10-12-12-12-12-xx-x--x--x--x--x--x-|
-55555555-33333-5-7-88888888--8--8--8--8-10-10-10-10-55-5/-8--8--8/10-10-|
-55555555-33333-3-5-66666666--8--8--8--8-10-10-10-10---------------------|



CHORUS
------------------------------------|
------------------------------------|
-12/14-14\--------------------------|
--x--x--x---------------------------|
-10/12-12\--------------------------|
------------------------------------|



VERSE 2
----------------------------------------|
----------------------------------------|
-777-10-10-10-555-777-------------------|
-777-10-10-10-555-777-88888888-77777777-|
-555--8--8--8-333-555-88888888-77777777-|
-555--8--8--8-333-555-66666666-55555555-|



VERSE 2
-------------------------------------------|
-------------------------------------------|
777-10-10-10-555-777----------555555555555-|
777-10-10-10-555-777-8-quick--555555555555-|
555--8--8--8-333-555-8--rest--333333333333-|
555--8--8--8-333-555-6--------333333333333-|



CHORUS: LOOK WHAT YOUVE DONE TO ME NOW………
------------------------------------------------------|
------------------------------------------------------|
-77777777-55555--------------10-10-10-10-10-10-10-10--|
-77777777-55555-5-7-88888888-10-10-10-10-10-10-10-10--|
-55555555-33333-5-7-88888888--8--8--8--8--8--8--8--8--|
-55555555-33333-3-5-66666666--8--8--8--8--8--8--8--8--|



CHORUS
------------------------------------------------------------------------|
------------------------------------------------------------------------|
-77777777-55555--------------10-10-10-10-12-12-12-12--7-lety-ring-------|
-77777777-55555-5-7-88888888-10-10-10-10-12-12-12-12--0-----------------|
-55555555-33333-5-7-88888888--8--8--8--8-10-10-10-10--5-----------------|
-55555555-33333-3-5-66666666--8--8--8--8-10-10-10-10--------------------|



BRIDGE SOLO
-------------------------------------13---13---12-12-12-13-------8----|
-------------------------------13-13---10---10-10-10-10----10-12---10-|
--------------------------12/14---------------------------------------|
--------------------14/15---------------------------------------------|
--5/12-----------12---------------------------------------------------|
----------------------------------------------------------------------|



BRIDGE SOLO
--8----10---12----13------13----13----12-12-12-13-------8----8------|
----10/-/11----11----11------10----10-10-10-10----10-12---10---10---|
--------------------------------------------------------------------|
--------------------------------------------------------------------|
--------------------------------------------------------------------|
--------------------------------------------------------------------|



BRIDGE SOLO            Take my hand
-10-10-10-10-10-12-13----------------------------13-------------------|
-11-11-11-11-11-11-10-------(10)--------------10-10-------(10)--------|
----------------------------------------------------------------------|
----------------------------------------------------------------------|
----------------------------------------------------------------------|
----------------------------------------------------------------------|



BRIDGE, TAKE MY HAND!!!!
|--------------------------------------------|
|:------------------------------------------:|
|--77-99-10-10---10-10/14-14-----------------|
|--xx-xx--x--x----x--x--x--x--8-88-8888888---|
|:-55-77--8--8----8--8/12-12--8-88-8888888--:|
|-----------------------------5-55-6666666---|



BRIDGE:
-----------------------------------------------|
-----------------------------------------------|
--77-77-77-77-7-7/14-14--14-14--14-14--quick---|
--xx-xx-xx-xx-x-x--x--x---x--x---x--x--rest----|
--55-55-55-55-5-5/12-12--12-12--12-12----------|
-----------------------------------------------|



CHORUS: LOOK WHAT YOUVE DONE TO ME NOW………
-----------------------------------------------------|
-----------------------------------------------------|
-77777777-55555--------------10-10-10-10-10-10-10-10-|
-77777777-55555-5-7-88888888-10-10-10-10-10-10-10-10-|
-55555555-33333-5-7-88888888--8--8--8--8--8--8--8--8-|
-55555555-33333-3-5-66666666--8--8--8--8--8--8--8--8-|



CHORUS
-----------------------------------------------------|
-----------------------------------------------------|
-77777777-55555--------------10-10-10-10-12-12-12-12-|
-77777777-55555-5-7-88888888-10-10-10-10-12-12-12-12-|
-55555555-33333-5-7-88888888--8--8--8--8-10-10-10-10-|
-55555555-33333-3-5-66666666--8--8--8--8-10-10-10-10-|



CHORUS
-----------------------------------------------------|
-----------------------------------------------------|
-77777777-55555--------------10-10-10-10-10-10-10-10-|
-77777777-55555-5-7-88888888-10-10-10-10-10-10-10-10-|
-55555555-33333-5-7-88888888--8--8--8--8--8--8--8--8-|
-55555555-33333-3-5-66666666--8--8--8--8--8--8--8--8-|



CHORUS
-----------------------------------------------------|
-----------------------------------------------------|
-77777777-55555--------------10-10-10-10-12-12-12-12-|
-77777777-55555-5-7-88888888-10-10-10-10-12-12-12-12-|
-55555555-33333-5-7-88888888--8--8--8--8-10-10-10-10-|
-55555555-33333-3-5-66666666--8--8--8--8-10-10-10-10-|



OUTRO
-------------------------------------------------------------------------|
-------------------------------------------------------------------------|
-7-----7-----7-----7-----7-----7-----7-----7-----7-----7-----7-----7-----|
-x-----x-----x-----x-----x-----x-----x-----x-----x-----x-----x-----x-----|
-5-555-5-555-5-555-5-555-5-555-5-555-5-555-5-555-5-555-5-555-5-555-5-555-|
-------------------------------------------------------------------------|



OUTRO
------------------------------------|
---*speed-pick-to-end---------------|
----7*******************************|
----7*******************************|
----5*******************************|
----5*******************************|
Tap to rate this tab
 
# A B C D E F G H I J K L M N O P Q R S T U V W X Y Z