Song name
# A B C D E F G H I J K L M N O P Q R S T U V W X Y Z

Afi - Too Late For Gods tab

Too Late For Gods
A Fire Inside
TUNE DOWN ONE WHOLE STEP
THEN DROP IT TO DROP-D

Guitar One, Intro
|---------------------------------------------------------------------|
|---------------------------------------------------------------------|
|---------------0^2^0^2----------------------0^2^0^2---5^7^5^7--------|
|-2^3^2^3-------0-------------2^3^2^3--------0---------0--------------|
|-5---------------------------5---------------------------------------|
|---------------------------------------------------------------------|
|
|
|Guitar Two, Intro
|--5------5---6-5-----5------||-10-------10-------12-------13----------|
|:---6------6-----6-----6---:||----10-------10-------10-------10-------|
|------7------------7-----7--||----------------------------------------|
|----------------------------||-------12-------12-------12-------12----|
|:--------------------------:||----------------------------------------|
|----------------------------||----------------------------------------|
|
|
|Guitar Three, Intro
|----|----------------------------|-------------------------------|
|----|:--------------------------:|-------------------------------|
|----|--3---3-2---2-0----0-2---2--|-(2)-let-ring-over-next-part---|
|-0--|----0-----0-----0------0----|-------------------------------|
|----|:--------------------------:|-------------------------------|
|----|----------------------------|-------------------------------|


Guitar Two, Intro
-13--------15------12---------10----------------|
----10--------13-------13-----------------------|
------------------------------------------------|
-------12---------------------------------------|
---------------------------12-------------------|
------------------------------------------------|



Intro
|--5-----5------6----6-5-------|----5------5---6---6-5------|
|:----6-----6------6-----6----:|--6---6--6---6---6-----6----|
|-------7-----7------------7---|-------------------------7--|
|------------------------------|----------------------------|
|-----------------------------:|----------------------------|
|------------------------------|----------------------------|


Intro
-----------------------------------|
-666666666-6-88888-8-6-666---------|
-xxxxxxxxx-x-xxxxx-x-x-xxx---------|
-333333333-3/55555-5\3-333---------|
-----------------------------------|
-----------------------------------|


VERSE
--5-----5------5-----5------5-----5-----5-----5-----|
----6-----6------6-----6------6-----6-----6-----6---|
------7-----7------5-----5--------------------------|
--------------------------------8-----8-----7-----7-|
----------------------------------------------------|
----------------------------------------------------|

VERSE
--5-----5^6-66-3-----5-----6-----6------=====------------|
----6------------5-----6-----6-----6----55-55-55-555555\-|
------7------------5-----7-----3-----3--33-33-33-222222--|
-----------------------------------------PM--------------|
---------------------------------------------------------|
---------------------------------------------------------|


VERSE
------------------------------------------------------|
------------------------------------------------------|
-77----77-----5---5---5/7-77-33----33----2-2---5-5-5--|
-77-==-77-xx--5-x-5-x-5/7-77-33-xx-33-xx-3-3-x-5-5-5--|
-55-55-55-xx--3-x-3-x-3/5-55-11-xx-11-xx-0-0-x-3-3-3--|
------------------------------------------------------|


VERSE
------------------------------------------------------|
------------------------------------------------------|
-77----77-----5---5---5/7-77-33----33----2-2---5-555--|
-77-==-77-xx--5-x-5-x-5/7-77-33-xx-33-xx-3-3-x-5-555--|
-55-55-55-xx--3-x-3-x-3/5-55-11-xx-11-xx-0-0-x-3-333--|
------------------------------------------------------|

PRE-CHORUS
-----------------------------------------------------|
-----------------------------------------------------|
---------333-------------------------333-------------|
--------------------5-------------------------222335-|
--1111/5-----333333-3-3333----1111/5-----3333--------|
-----------------------------------------------------|

PRE-CHORUS                                                “Mayday…”
-----------------------------------------------------555------------|
----------------3-6-5--------------------------------555------------|
--------555---3-------5--55555555555--33333333-------777---QUICK----|
------3-----0------------XXXXXXXXXXX--33333333--====-777----REST----|
--1-1--------------------33333333333--11111111--5555-555------------|
--------------------------------------------------------------------|



CHORUS
-------------------------------------1-----------8-----------|
-------------------------------------1-1---------8-----------|
-7777-5555-3---------5-5----------2----2-3-3-3-5-55----------|
-7777-5555-3-----3-3-----3-3------3----3-3-3-3-5-55-------77-|
-5555-3333-1-1-1-------------1----3------1-1-1------55-88----|
-------------------------------0-----------------------------|



CHORUS
-------------------------------------1---------8-----------|
-------------------------------------1-1-------8-----------|
-7777-5555-3---------5-5----------2----2-3-3-3-5-----------|
-7777-5555-3-----3-3-----3-3------3----3-3-3-3-5-----------|
-5555-3333-1-1-1-------------1----3------1-1-1-------------|
-------------------------------0---------------------------|



MID-SOLO
---5--------------------5-----------------------5---------------------|
-------5^6^5---5^6^5---------5^6^5---5^6^5----------5^6^5---5^6^5-----|
-----7-------7-------7-----7-------7-------7-5----7-------7-------7-5-|
----------------------------------------------------------------------|
----------------------------------------------------------------------|
----------------------------------------------------------------------|


MID-SOLO
------------------------------------|
-5^6^5--------(8)-LET-RING----------|
-------7---7------------------------|
------------------------------------|
------------------------------------|
------------------------------------|


VERSE
-------------------------------------------------------3---------|
--6-==-6-==-6-=-5-=-6--5-==-5-==-6-=-5-=-6--6-==-6-==--6-=-6-=-5-|
--7-77-7-77-7-7-7-7-7--7-77-7-77-7-7-7-7-7--3-33-3-33----3-3-3-3-|
-----------------------------------------------------------------|
-----------------------------------------------------------------|
-----------------------------------------------------------------|


VERSE
----------------------10----10-----10---10---10---10---10----|
-6-==-6-==-5-=-5-=-5--10-==-10-==--11-=-10-=--8-=--8-=-10----|
-5-55-5-55-5-5-5-5-5-----77----77-----7----7----7----7----77-|
-------------------------------------------------------------|
-------------------------------------------------------------|
-------------------------------------------------------------|



VERSE
-----------------------------------------------------------------|
-6-=-6-=-6-=----11-------11-------13----13-----------------------|
-7-7-7-7-7-7----10-10-10-10-10-10-10-10-10-10-10-10-10-10-10-10/-|
-----------------------------------------------x--x--x--x--x--x/-|
-----------------------------------------------8--8--8--8--8--8/-|
-----------------------------------------------------------------|


VERSE
-----------------|
-----------------|
/12-12-12-12-12--|
/-x--x--x--x--x--|
/10-10-10-10-10--|
-----------------|


VERSE
------------------------------------------------------|
------------------------------------------------------|
-77----77-----5---5---5/7-77-33----33----2-2---5-5-5--|
-77-==-77-xx--5-x-5-x-5/7-77-33-xx-33-xx-3-3-x-5-5-5--|
-55-55-55-xx--3-x-3-x-3/5-55-11-xx-11-xx-0-0-x-3-3-3--|
------------------------------------------------------|


VERSE
---------------------------------------------------------|
---------------------------6^8---------------------------|
-77----577-5---5-------5^7-----33333333-----555----------|
-77-==-577-5-x-5-x-0^7---------33333333-====555----------|
-55-55-----3-x-3-x-------------11111111-3333333----------|
---------------------------------------------------------|



CHORUS
-------------------------------------1-----------8-----------|
-------------------------------------1-1---------8-----------|
-7777-5555-3---------5-5----------2----2-3-3-3-5-55----------|
-7777-5555-3-----3-3-----3-3------3----3-3-3-3-5-55-------77-|
-5555-3333-1-1-1-------------1----3------1-1-1------55-88----|
-------------------------------0-----------------------------|



CHORUS
-------------------------------------1---------8-----------|
-------------------------------------1-1-------8-----------|
-7777-5555-3---------5-5----------2----2-3-3-3-5-----------|
-7777-5555-3-----3-3-----3-3------3----3-3-3-3-5-----------|
-5555-3333-1-1-1-------------1----3------1-1-1-------------|
-------------------------------0---------------------------|



Bridge
------------5--------------3-------------------------------5------|
-------6------6--------5-------------------------------6----------|
---7-7---7------7-55-5---5-------5---5--33----3----7-7---7--------|
-0-----------------------------2---2------------------------------|
-------------------------------------------11----1----------------|
------------------------------------------------------------------|




Bridge
-------------10------------------8------------------------555555-|
--------6-------10------------8----------------------=----666666-|
----7-7---7--------10----5-----------5---5-33----3---2-==-777777-|
--0--------------------5---5-------2---2-------------0-00-000000-|
----------------------------------------------11---1-------------|
-----------------------------------------------------------------|


Bridge
------------------------------------10-10-10-10-10-10-10-10--|
-6666666666-55555555555--------------6--6--6--6--6--6--6--6--|
-7777777777-55555555555-55555-33333--7--7--7--7--7--7--7--7--|
-7777777777-55555555555-22222-33333--0--0--0--0--0--0--0--0--|
-5555555555-33333333333-33333-11111--------------------------|
-------------------------------------------------------------|


Bridge
----------------------------------------------------------------|
-6-666-------------55555555555-333333333------555---------------|
-7-777-14-14-14-14-55555555555-333333333-====-555---MAYDAY------|
-7-777--x--x--x--x-55555555555-333333333-5555-555---------------|
-5-555-12-12-12-12-33333333333-111111111-3333-333---------------|
----------------------------------------------------------------|



CHORUS
-------------------------------------1-----------8-----------|
-------------------------------------1-1---------8-----------|
-7----5----3---------5-5----------2----2-3-3-3-5-55----------|
-7----5----3-----3-3-----3-3------3----3-3-3-3-5-55-------77-|
-5----3----1-1-1-------------1----3------1-1-1------55-88----|
-------------------------------0-----------------------------|



CHORUS
-------------------------------------1------------------------|
-------------------------6/8-8-------1-1----------------------|
-7777-5555-3---------5-5----------2----2-3-3-3-555-777-999999-|
-7777-5555-3-----3-3--------------3----3-3-3-3-xxx-xxx-xxxxxx-|
-5555-3333-1-1-1------------------3------1-1-1-333-555-777777-|
--------------------------------------------------------------|



CHORUS
-------------------------------------1-----------8-----------|
-------------------------------------1-1---------8-----------|
-7777-5555-3---------5-5----------2----2-3-3-3-5-55----------|
-7777-5555-3-----3-3-----3-3------3----3-3-3-3-5-55-------77-|
-5555-3333-1-1-1-------------1----3------1-1-1------55-88----|
-------------------------------0-----------------------------|



CHORUS
-------------------------------------1-----------------------|
-------------------------6/8-8-------1-1---------------------|
-7777-5555-3---------5-5----------2----2-3-3-3-5-------------|
-7777-5555-3-----3-3--------------3----3-3-3-3-5-------------|
-5555-3333-1-1-1------------------3------1-1-1-3-/5----------|
-------------------------------------------------------------|
Tap to rate this tab
 
# A B C D E F G H I J K L M N O P Q R S T U V W X Y Z