Song name
# A B C D E F G H I J K L M N O P Q R S T U V W X Y Z

Afi - Medicate tab

“Medicate” by AFI

Intro 3xs
|--------------------|-------------------|
|:---------1^0------:|-------------------|
|-----2--------2-00--|--------5^4---7/99-|
|--------------------|----7-------7------|
|:--0---0-----------:|--0---0------------|
|--------------------|-------------------|

3xs
|--------------------|-------------------|
|:---------1^0------:|-------555----1----|
|-----2--------2-00--|--222-------222----|
|--------------------|--------------x----|
|:--0---0-----------:|--------------x----|
|--------------------|-------------------|


Verse
||--------------------------------------------------------|
||---------------------=-=-==-------======--5555----------|
||-=-=-==-------======-7-7-77-x-5^7-777777--5555---444444-|
||-7-7-77-x-5^7-777777-0-0-00-x-0-0-000000--5555-x-555555-|
||-0-0-00-x-0-0-000000----------------------3333-x-555555-|
||-----------------------------------------------x-333333-|

Verse
-------------||-------------------------------------------------|
-----555---1-||--------------x-10-10-10-10x8^10-10-10-10-10-10--|
-222-----222-||-9999x7^999999x-7--7--7--7-x5^7--7--7--7--7--7---|
-----------x-||-7777x5^777777x-0--0--0--0-xx-0--0--0--0--0--0---|
-----------x-||-0000xx-000000-----------------------------------|
-------------||-------------------------------------------------|


Verse                               Pre-Chorus
---------------------------------||------------------------------------|
-5555----------------------------||------------------------------------|
-5555---44444444-----------------||------5^7-------5^7-----5^7----777--|
-5555-x-55555555-4444x-333/55555-||----7---------7--------7-------777--|
-3333-x-55555555-5555x-333/55555-||--0-----------------x3------x5-555--|
------x-33333333-2222x-111/33333-||-----------x3-----------------------|


Pre-Chorus
-----------------------------------||--------|
---------------------------------7-||--------|
-----5^7------5^7------5^7^5^0---7-||--slide-|
---7--------7--------7---------7-7-||--x\----|
-0-------------------------------5-||--x\----|
---------x3-------x2---------------||--x\----|






Chorus, Guitar One
||----------------------------------------------------------------------|
||-------------------------66666--------------------6-666---10-10-10-10-|
||-2-222-0-5-555-----------77777---2-2222-0-4-44444-7-777-x-10-10-10-10-|
||-2-222-0-5-555-0-5-555-0-77777-x-2-2222-0-5-55555-7-777-x-10-10-10-10-|
||-0-000-0-3-333-0-5-555-0-55555-x-0-0000-0-5-55555-5-555-x--8--8--8--8-|
||---------------0-3-333-0-------x--------0-3-33333---------------------|


Chorus, Guitar One
----------------||
-12-12-12-12-12-||
-12-12-12-12-12-||
-12-12-12-12-12-||
-10-10-10-10-10-||
----------------||


Chorus, Guitar Two
|----------------------------111111---------------------1111-----------|
|---3^5-3----3^5-3----3^5-3--333333----3^5-3-----3^5-3--3333-666x88888-|
|----------------------------222222---------------------2222-555x77777-|
|----------------------------000000---------------------0000-333x55555-|
|-0-------x3------------------------x0---------------------------------|
|-------------------3-------------------------x3-----------------------|


3xs
|--------------------|-------------------|
|:---------1^0------:|-------555----1----|
|-----2--------2-00--|--222-------222----|
|--------------------|--------------x----|
|:--0---0-----------:|--------------x----|
|--------------------|-------------------|


Verse
||--------------------------------------------------------|
||---------------------=-=-==-------======--5555----------|
||-=-=-==-------======-7-7-77-x-5^7-777777--5555---444444-|
||-7-7-77-x-5^7-777777-0-0-00-x-0-0-000000--5555-x-555555-|
||-0-0-00-x-0-0-000000----------------------3333-x-555555-|
||-----------------------------------------------x-333333-|

Verse
-------------||-------------------------------------------------|
-----555---1-||--------------x-10-10-10-10x8^10-10-10-10-10-10--|
-222-----222-||-9999x7^999999x-7--7--7--7-x5^7--7--7--7--7--7---|
-----------x-||-7777x5^777777x-0--0--0--0-xx-0--0--0--0--0--0---|
-----------x-||-0000xx-000000-----------------------------------|
-------------||-------------------------------------------------|


Verse                               Pre-Chorus
---------------------------------||------------------------------------|
-5555----------------------------||------------------------------------|
-5555---44444444-----------------||------5^7-------5^7-----5^7----777--|
-5555-x-55555555-4444x-333/55555-||----7---------7--------7-------777--|
-3333-x-55555555-5555x-333/55555-||--0-----------------x3------x5-555--|
------x-33333333-2222x-111/33333-||-----------x3-----------------------|

Pre-Chorus
-----------------------------------||--------|
---------------------------------7-||--------|
-----5^7------5^7------5^7^5^0---7-||--slide-|
---7--------7--------7---------7-7-||--x\----|
-0-------------------------------5-||--x\----|
---------x3-------x2---------------||--x\----|



Chorus, Guitar One
||----------------------------------------------------------------------|
||-------------------------66666--------------------6-666---10-10-10-10-|
||-2-222-0-5-555-----------77777---2-2222-0-4-44444-7-777-x-10-10-10-10-|
||-2-222-0-5-555-0-5-555-0-77777-x-2-2222-0-5-55555-7-777-x-10-10-10-10-|
||-0-000-0-3-333-0-5-555-0-55555-x-0-0000-0-5-55555-5-555-x--8--8--8--8-|
||---------------0-3-333-0-------x--------0-3-33333---------------------|


Chorus, Guitar One
----------------||
-12-12-12-12-12-||
-12-12-12-12-12-||
-12-12-12-12-12-||
-10-10-10-10-10-||
----------------||


Chorus, Guitar Two
|----------------------------111111---------------------1111-----------|
|---3^5-3----3^5-3----3^5-3--333333----3^5-3-----3^5-3--3333-666x88888-|
|----------------------------222222---------------------2222-555x77777-|
|----------------------------000000---------------------0000-333x55555-|
|-0-------x3------------------------x0---------------------------------|
|-------------------3-------------------------x3-----------------------|



Chorus, Guitar One
||-------------------------------------------------------------------|
||-------------------------66666---10-10-10-10-x5555555-66666666666--|
||-2-222-0-5-555-----------77777---10-10-10-10-x5555555-77777777777--|
||-2-222-0-5-555-0-5-555-0-77777-x-10-10-10-10-x5555555-77777777777--|
||-0-000-0-3-333-0-5-555-0-55555-x--8--8--8--8-x3333333-55555555555--|
||---------------0-3-333-0-------x--8--8--8--8-x3333333-55555555555--|



               ||Acoustic Bridge Part
-0----0---0-|| ||-----12------12-------12-----12--------12--------12-|
-1----1---1-|| ||:-10----10------10--------------10--------10--------|
-2----2---2-|| ||-----------9-------9------10-------10--------10-----|
-2----2---2-|| ||----------------------------------------------------|
-0----0---0-|| ||:---------------------------------------------------|
------------|| ||----------------------------------------------------|



Acoustic Bridge Part

----12-------12-------12-------12-------12-------12----||
-------10-------10----------------10-------10--------:-||
-11-------11-------11------10--------10-------10-------||
-------------------------------------------------------||
-----------------------------------------------------:-||
-------------------------------------------------------||


Guitar Lead One over Acoustic Bridge
|----------------------------------------------------------------------|
|----------------------------------------------------------------------|
|----------------------------------------------------------------------|
|--sl------------------------------------------------------------------|
|--^-------2-3--------2-3----------2-3-----3\0---2-3----2-3/5--3^2-2^3-|
|-0/5-----------1-----------2-----------1------------1-----------------|


Electric Bridge Part (repeat once)
||--555555--------------------------------------------------|
||:-555555---10-10-10-10-10--10-10-10-10-10--10-10-10-10-10-|
||--555555---10-10-10-10-10--11-11-11-11-11--10-10-10-10-10-|
||--777777---10-10-10-10-10--11-11-11-11-11--10-10-10-10-10-|
||:-000000----8--8--8--8--8---9--9--9--9--9---8--8--8--8--8-|
||--000000----8--8--8--8--8-------------------8--8--8--8--8-|


Electric Bridge Part (continued…)
-55555------------------------------------------------||
-55555-10-10-10-10-10--------------------------------:||
-55555-10-10-10-10-10-11-11-11-11-11---9--9--9--9--9--||
-77777-10-10-10-10-10-12-12-12-12-12--10-10-10-10-10--||
-00000--8--8--8--8--8-12-12-12-12-12--10-10-10-10-10-:||
-00000--8--8--8--8--8-10-10-10-10-10---8--8--8--8--8--||


Repeat once
|--------------------|
|:---------1^0------:|
|-----2--------2-00--|
|--------------------|
|:--0---0-----------:|
|--------------------|


Chorus, Guitar One
||----------------------------------------------------------------------|
||-------------------------66666--------------------6-666---10-10-10-10-|
||-2-222-0-5-555-----------77777---2-2222-0-4-44444-7-777-x-10-10-10-10-|
||-2-222-0-5-555-0-5-555-0-77777-x-2-2222-0-5-55555-7-777-x-10-10-10-10-|
||-0-000-0-3-333-0-5-555-0-55555-x-0-0000-0-5-55555-5-555-x--8--8--8--8-|
||---------------0-3-333-0-------x--------0-3-33333---------------------|


Chorus, Guitar One
----------------||
-12-12-12-12-12-||
-12-12-12-12-12-||
-12-12-12-12-12-||
-10-10-10-10-10-||
----------------||


Chorus, Guitar Two
|----------------------------111111---------------------1111-----------|
|---3^5-3----3^5-3----3^5-3--333333----3^5-3-----3^5-3--3333-666x88888-|
|----------------------------222222---------------------2222-555x77777-|
|----------------------------000000---------------------0000-333x55555-|
|-0-------x3------------------------x0---------------------------------|
|-------------------3-------------------------x3-----------------------|



Chorus, Guitar One
||-------------------------------------------------------------------|
||-------------------------66666---10-10-10-10-x5555555-66666666666--|
||-2-222-0-5-555-----------77777---10-10-10-10-x5555555-77777777777--|
||-2-222-0-5-555-0-5-555-0-77777-x-10-10-10-10-x5555555-77777777777--|
||-0-000-0-3-333-0-5-555-0-55555-x--8--8--8--8-x3333333-55555555555--|
||---------------0-3-333-0-------x--8--8--8--8-x3333333-55555555555--|



Chorus, Guitar One
||----------------------------------------------------------------------|
||-------------------------66666--------------------6-666---10-10-10-10-|
||-2-222-0-5-555-----------77777---2-2222-0-4-44444-7-777-x-10-10-10-10-|
||-2-222-0-5-555-0-5-555-0-77777-x-2-2222-0-5-55555-7-777-x-10-10-10-10-|
||-0-000-0-3-333-0-5-555-0-55555-x-0-0000-0-5-55555-5-555-x--8--8--8--8-|
||---------------0-3-333-0-------x--------0-3-33333---------------------|


Chorus, Guitar One
----------------||
-12-12-12-12-12-||
-12-12-12-12-12-||
-12-12-12-12-12-||
-10-10-10-10-10-||
----------------||



Chorus, Guitar Two
|----------------------------111111---------------------1111-----------|
|---3^5-3----3^5-3----3^5-3--333333----3^5-3-----3^5-3--3333-666x88888-|
|----------------------------222222---------------------2222-555x77777-|
|----------------------------000000---------------------0000-333x55555-|
|-0-------x3------------------------x0---------------------------------|
|-------------------3-------------------------x3-----------------------|


Guitar Solo Unavailable…
 Guitar Part Under Solo
  (Repeat 2xs, play 3xs total)
||-----------------------------------|
||:-------------------------66666---:|
||--2-222-0-5-555-----------77777----|
||--2-222-0-5-555-0-5-555-0-77777-x--|
||:-0-000-0-3-333-0-5-555-0-55555-x-:|
||----------------0-3-333-0-------x--|


Outro
||-------------------------------------------------------------------00-|
||--10-10-10-10-x5555555-66666666666-10-10-10-10-x5555555-6----------11-|
||--10-10-10-10-x5555555-77777777777-10-10-10-10-x5555555-7--let-----22-|
||--10-10-10-10-x5555555-77777777777-10-10-10-10-x5555555-7--ring----22-|
||---8--8--8--8-x3333333-55555555555--8--8--8--8-x3333333-5----------00-|
||---8--8--8--8-x3333333-55555555555--8--8--8--8-x3333333------------00-|


END
-0------||
-1------||
-2------||
-2------||
-0------||
-0------||
Tap to rate this tab
 
# A B C D E F G H I J K L M N O P Q R S T U V W X Y Z