Afi - Sacrilege tab

Afi
Sacrilege


||Intro, guitar one
||--------------------------------------------------------------------||
||:------------------------------------------------------------------:||
||--pm-----------not exact strum count--------------------------------||
||--================================================================--||
||:-7777777777777777777777777777777777777777777777777777777777777777-:||
||--------------------------------------------------------------------||
||                                                                    ||
||                                                                    ||
||Intro, guitar two                                                   ||
||----------------------||--------------------------------------------||
||:--------------------:||--------------------------------------------||
||--777666776666666666--||-7777-9999-11-11-11-11-11-11-11-11-11-11-11-||
||----------7777777777--||------------9--9--9--9--9--9--9--9--9--9--9-||
||:--------------------:||--------------------------------------------||
||----------------------||--------------------------------------------||


VERSE
-------------------3/5---5------------------------------55555555--|
--12-------10--8---3/5---5----------------------PM------55555555--|
--11--------9--7---4/6---6----------------------=======-66666666--|
------------7--5---5/7----------5-5555-55-5555--7-7-7-7-77777777--|
------------7--5---5/7------5-5-5-5555-55-5555--7-7-7-7-77777777--|
-------------------3/5------2-3-3-3333-33-3333--5-5-5-5-55555555--|


Verse, guitar one
|--2-=-2-=-2=-2-=--3-=-3-=-2-=-0-=-2-=-2-=-2-=-2-=-0-=-0-=-2-=-2-=--|
|----0---0--0---0----0---0---0---0---0---0---0---0---0---0---0---0--|
|----PM-------------------------------------------------------------|
|-------------------------------------------------------------------|
|-------------------------------------------------------------------|
|-------------------------------------------------------------------|
|
|
|Verse, guitar two
|-------------------------------------------------------------------|
|-------------------------------------------------------------------|
|--HEAVY-PM---------------------------------------------------------|
|--==================-==-=================-4------------------------|
|--999999999999999999-77-55555555555555555-5------------------------|
|--777777777777777777-55-33333333333333333-2------------------------|


Verse, guitar one
|-------------------------------------------------------------------|
|--------------------------------------------------5---5---5---5----|
|--6---6---6--6---7---7---6---6----7---7---7--7------6---6---6---6--|
|----7---7--7---7---7---7---7--7-----9---9--9---9-------------------|
|-------------------------------------------------------------------|
|-------------------------------------------------------------------|
|                                                                   |
|                                                                   |
|Verse, guitar two                                                  |
|------------------------------------33333333-----------55555555555-|
|--PM--------------------------------33333333-pm--------55555555555-|
|--================----------pm------44444444-=========-66666666666-|
|--2222222222222222-=-xx-4/5-=======-55555555-777777777-77777777777-|
|--0000000000000000-0-xx-----5-5-5-5-55555555-777777777-77777777777-|
|-------------------2--------3-3-3-3-33333333-555555555-55555555555-|


PRE-CHORUS
----3------5-----------------------3-5-3-2----3------5-------------|
---333----555------7-------7-----3-------3---333----555------------|
-444-44-666-66---7---7---7---7-0-----------444-44-666-66-----------|
-55---5/77---7-9-------7-------------------55---5-77---7-----------|
-------------------------------------------------------------------|
-------------------------------------------------------------------|

PRE-CHORUS
--9--9--9--9--9--9--9--9-12-12-12-12-12-12-12-14-14-14-14-14-14-14-14-|
-10-10-10-10-10-10-10-10-10-10-10-10-10-10-10-10-10-10-10-10-10-10-10-|
-11-11-11-11-11-11-11-11-11-11-11-11-11-11-11-11-11-11-11-11-11-11-11-|
----------------------------------------------------------------------|
----------------------------------------------------------------------|
----------------------------------------------------------------------|


CHORUS {this chorus is a nightmare, but still fun as always w/ jade}
-------------------------------------------------------------------|
------------------------------------3333333------------------------|
----4------2------------------------2222222-------6-6--------------|
---4-4---2------55555555555-4/5-4-0-0000000-7777--7-7-77-----------|
--2----0--------55555555555---------0000000-7777-7777-77-----------|
-------------2-333333333333-----------------5555-5555-55-----------|


CHORUS
-----7-----------------------------------9--9--9--9--9--9--9--9--9--9-|
-----7-----------12-12-12-12-15-x-12-12-10-10-10-10-10-10-10-10-10-10-|
-----7-----------12-12-12-12-12-x-12-12-11-11-11-11-11-11-11-11-11-11-|
-9-9-9-9--11/14--12-12-12-12-12-x-12-12-11-11-11-11-11-11-11-11-11-11-|
-9-9---9---x/-x--10-10-10-10-10-x-10-10--9--9--9--9--9--9--9--9--9--9-|
-7-----7---9/12-------------------------------------------------------|


CHORUS
-5555555555--|
-5555555555--|
-6666666666--|
-7777777777--|
-7777777777--|
-5555555555--|


Interlude(I guess) or “n-between parts” I like the sound of that…
|------------------2-----2------------0-0-0-00-0--0-0-0-00-0-0--------|
|------------------3-3---3-3----------5\3-2-22-2-/7-5-3-33-3-3--------|
|----------------------2----2-2/4444----------------------------------|
|-5-4-0--5-4-0-0^2----------------------------------------------------|
|-2-2-2--2-2----------------------------------------------------------|
|---------------------------------------------------------------------|
|
|
|N-between parts
|-22-2-3-x-55-x-3-x-2222--2222-3333-00000000-|
|-33-3-3-3-33-3---3-3333--3333-3333-22222222-|
|-==========================================-
|-pm-----------------------------------------|
|--------------------------------------------|
|--------------------------------------------|



Verse, guitar one
|--2-=-2-=-2=-2-=--3-=-3-=-2-=-0-=-2-=-2-=-2-=-2-=-0-=-0-=-2-=-2-=--|
|----0---0--0---0----0---0---0---0---0---0---0---0---0---0---0---0--|
|----PM-------------------------------------------------------------|
|-------------------------------------------------------------------|
|-------------------------------------------------------------------|
|-------------------------------------------------------------------|
|
|
|Verse, guitar two
|-------------------------------------------------------------------|
|-------------------------------------------------------------------|
|--HEAVY-PM---------------------------------------------------------|
|--==================-==-=================-4------------------------|
|--999999999999999999-77-55555555555555555-5------------------------|
|--777777777777777777-55-33333333333333333-2------------------------|



Verse, guitar one
|-------------------------------------------------------------------|
|--------------------------------------------------5---5---5---5----|
|--6---6---6--6---7---7---6---6----7---7---7--7------6---6---6---6--|
|----7---7--7---7---7---7---7--7-----9---9--9---9-------------------|
|-------------------------------------------------------------------|
|-------------------------------------------------------------------|
|                                                                   |
|                                                                   |
|Verse, guitar two                                                  |
|------------------------------------33333333-----------55555555555-|
|--PM--------------------------------33333333-pm--------55555555555-|
|--================----------pm------44444444-=========-66666666666-|
|--2222222222222222-=-xx-4/5-=======-55555555-777777777-77777777777-|
|--0000000000000000-0-xx-----5-5-5-5-55555555-777777777-77777777777-|
|-------------------2--------3-3-3-3-33333333-555555555-55555555555-|



PRE-CHORUS
----3------5-----------------------3-5-3-2----3------5-------------|
---333----555------7-------7-----3-------3---333----555------------|
-444-44-666-66---7---7---7---7-0-----------444-44-666-66-----------|
-55---5/77---7-9-------7-------------------55---5-77---7-----------|
-------------------------------------------------------------------|
-------------------------------------------------------------------|


PRE-CHORUS
--9--9--9--9--9--9--9--9-12-12-12-12-12-12-12-14-14-14-14-14-14-14-14-|
-10-10-10-10-10-10-10-10-10-10-10-10-10-10-10-10-10-10-10-10-10-10-10-|
-11-11-11-11-11-11-11-11-11-11-11-11-11-11-11-11-11-11-11-11-11-11-11-|
----------------------------------------------------------------------|
----------------------------------------------------------------------|
----------------------------------------------------------------------|



CHORUS {this chorus is a nightmare, but still fun as always w/ jade}
-------------------------------------------------------------------|
------------------------------------3333333------------------------|
----4------2------------------------2222222-------6-6--------------|
---4-4---2------55555555555-4/5-4-0-0000000-7777--7-7-77-----------|
--2----0--------55555555555---------0000000-7777-7777-77-----------|
-------------2-333333333333-----------------5555-5555-55-----------|


CHORUS
-----7-----------------------------------9--9--9--9--9--9--9--9--9--9-|
-----7-----------12-12-12-12-15-x-12-12-10-10-10-10-10-10-10-10-10-10-|
-----7-----------12-12-12-12-12-x-12-12-11-11-11-11-11-11-11-11-11-11-|
-9-9-9-9--11/14--12-12-12-12-12-x-12-12-11-11-11-11-11-11-11-11-11-11-|
-9-9---9---x/-x--10-10-10-10-10-x-10-10--9--9--9--9--9--9--9--9--9--9-|
-7-----7---9/12-------------------------------------------------------|


CHORUS
-5555555555--|
-5555555555--|
-6666666666--|
-7777777777--|
-7777777777--|
-5555555555--|



BRIDGE (Get ready to stretch)
|----------|-----------|-------------|-------------|
|------3---|-------3---|-----7-------|------5------|
|----6---6-|-----6---6-|-------7-----|--------6----|
|----------|-----------|---------9---|----------7--|
|----------|-----------|-----------9-|-------------|
|-3--------|--00-------|-77----------|-55----------|



BRIDGE (Get ready to stretch)
|----------|-----------|-----0-------|----------------------|
|------3---|-------3---|-----0-0-----|----------------------|
|----6---6-|-----6---6-|-------6-6---|----------------------|
|----------|-----------|-77------7---|-pm------------444444-|
|----------|-----------|-77--------7-|-=========-4444444444-|
|-3--------|--00-------|-55--------5-|-222222222-2222222222-|


I cant do the solo cuz I don’t feel like it, but here’s the rhythm
---------------------------------------------------------------------|
---------------------------------------------------------------------|
-----------------777777777-14-14-14-14-14-14-14-14-14----------------|
--999-777-555555-777777777-14-14-14-14-14-14-14-14-14-999-777-555555-|
--999-777-555555-555555555-12-12-12-12-12-12-12-12-12-999-777-555555-|
--777-555-333333--------------------------------------777-555-333333-|


Rhythm under solo
-------------------------------------------------------------------|
-------------------------------------------------------------------|
-11-11-11-11-11-11-11-11-11-11--14-14-14-14-14-14-14-14-14-14------|
-11-11-11-11-11-11-11-11-11-11--14-14-14-14-14-14-14-14-14-14------|
--9--9--9--9--9--9--9--9--9--9--12-12-12-12-12-12-12-12-12-12------|
-------------------------------------------------------------------|


CHORUS
------------------------|
------------------------|
------------------------|
9\7\5--pm------77777777-|
9\7\5--===-====77777777-|
7\5\3--555-555555555555-|


CHORUS
-----------------------------------------9--9--9--9--9--9--9--9--9--9-|
-----------------12-12-12-12-15-x-12-12-10-10-10-10-10-10-10-10-10-10-|
-----------------12-12-12-12-12-x-12-12-11-11-11-11-11-11-11-11-11-11-|
-9-9-9-9--11/14--12-12-12-12-12-x-12-12-11-11-11-11-11-11-11-11-11-11-|
-9-9-9-9---x/-x--10-10-10-10-10-x-10-10--9--9--9--9--9--9--9--9--9--9-|
-7-7-7-7---9/12-------------------------------------------------------|


CHORUS
-5555555-------|
-5555555-------|
-6666666-------|
-7777777-------|
-7777777-12\\--|
-5555555-12\\\-|


CHORUS
--33333333333------------55555555555--------------------10-10-10-10-10-|
--33333333333-7777777777-55555555555-----8--------10-----x--x--x--x--x-|
--44444444444-7777777777-66666666666---9---9----11--11--12-12-12-12-12-|
--55555555555-7777777777-77777777777--------------------12-12-12-12-12-|
--55555555555-5555555555-77777777777--------------------10-10-10-10-10-|
--33333333333-5555555555-55555555555-0--------0---------10-10-10-10-10-|


--10-10-10-10-10----------------------------------14-14-14-14-14-14-14-|
---x--x--x--x--x-10-10-10-10-10-10-10-10-10-10-10-14-14-14-14-14-14-14-|
--12-12-12-12-12-11-11-11-11-11-11-11-11-11-11-11-11-11-11-11-11-11-11-|
--12-12-12-12-12-12-12-12-12-12-12-12-12-12-12-12-11-11-11-11-11-11-11-|
--10-10-10-10-10-12-12-12-12-12-12-12-12-12-12-12--9--9--9--9--9--9--9-|
--10-10-10-10-10-10-10-10-10-10-10-10-10-10-10-10----------------------|


-14-14-14-14-------------------7-----------------------------------|
-14-14-14-14-------------------7-----------------------------------|
-11-11-11-11-------------------7-----------------------------------|
-11-11-11-11--777-x-7-x-7-77---9-----------------------------------|
--9--9--9--9--777-x-7-x-7-77---9-----------------------------------|
--------------555-x-5-x-5-55---7-----------------------------------|
Tap to rate this tab
 
# A B C D E F G H I J K L M N O P Q R S T U V W X Y Z