Afi - Veronica Sawyer Smokes tab

Veronica Sawyer Smokes
A Fire Inside

INTRO
--------------------------------4--------------------|
--------------------------------4---4--444445554444--|
-888889999999999999999999-4-4-4---4-4--444444444444--|
-xxxxxxxxxxxxxxxxxxxxxxxx-6-6-6---6-6--444444444444--|
-777777777777777777777777-6-6----------222222222222--|
-000000000000999999999999-4--------------------------|


INTRO
----------------------------------4--------------------|
----------------------------4-------4----444445554444--|
888889999999999999999999------4-------4--444444444444--|
xxxxxxxxxxxxxxxxxxxxxxxx--------6--------444444444444--|
777777777777777777777777-----------------222222222222--|
000000000000999999999999-4-----------------------------|


VERSE
--------------------------------4---4---------------|
--------------------------------4-4-4--444444444444-|
-8888899---9---99999999999--------4----444444444444-|
-xxxxxxx---x---xxxxxxxxxxx-6666--------444444444444-|
-777777777777--77777777777-6666--------222222222222-|
-000000000000--99999999999-4444---------------------|


VERSE
------------------------------------------------------|
------------------------------------------------------|
--88888-999-11-11-11-11-------11-11-11-11-11-11-11-11-|
--xxxxx-xxx--x--x--x--x--------x--x--x--x--x--x--x--x-|
--77777-777--9--9--9--9--x-77--9--9--9--9--9--9--9--9-|
--00000-000--------------x-00-------------------------|


VERSE
11-11-11-11-11-11-11-11-11-11-11-11-11-11---------------------|
-9--9--9--9--9--9--9--9--9--9--9--9--9--9---------------------|
-8--8--8--8--8--8--8--8--8--8--8--8--8--8--PM-----------------|
-------------------------------------------====-====999999999-|
-------------------------------------------9999-9999999999999-|
-------------------------------------------7777-7777777777777-|


PRE-CHORUS
---0----0----0----------------------|
---0----0----0----------------------|
-666--888--666----------------------|
-777--999--777-999999999999-9999----|
-777--999--777-999999999999-6666----|
-555--777--555-777777777777-7777----|




CHORUS
-----------------------------------------------------------|
-----------------------------------------------------------|
--99999999999-8888888888888---------------6666666-8888888--|
--99999999999-9999999999999-7777777777777-XXXXXXX-XXXXXXX--|
--77777777777-6666666666666-7777777777777-4444444-6666666--|
----------------------------5555555555555------------------|


CHORUS
------------------------------------------------------------|
------------------------------------------------------------|
--99999999999-8888888888888---------------6666666-44444444--|
--99999999999-9999999999999-7777777777777-6666666-44444444--|
--77777777777-6666666666666-7777777777777-4444444-22222222--|
----------------------------5555555555555-------------------|



INTRO
----------------------------------4--------------------|
----------------------------4-------4----444445554444--|
888889999999999999999999------4-------4--444444444444--|
xxxxxxxxxxxxxxxxxxxxxxxx--------6--------444444444444--|
777777777777777777777777-----------------222222222222--|
000000000000999999999999-4-----------------------------|



VERSE
--------------------------------------------------------0-------|
-------------------9-------------------9--99--------------------|
-8-9-------------------------------------------------8-----8----|
---------------11-------------------9--------------9---------9--|
--------------------------------11------------11----------------|
-----000000000-------999999999----------------------------------|


VERSE
---------------------------------------11---------------------|
-------------------9--------------------9---------------------|
-8-9--------------------------------8---8--PM-----------------|
---------------11--------------------------====-====999999999-|
--------------------------------11---------9999-9999999999999-|
-----000000000-------999999999-------------7777-7777777777777-|



PRE-CHORUS
---0----0----0----------------------|
---0----0----0----------------------|
-666--888--666----------------------|
-777--999--777-999999999999-9999----|
-777--999--777-999999999999-6666----|
-555--777--555-777777777777-7777----|




CHORUS
-----------------------------------------------------------|
-----------------------------------------------------------|
--99999999999-8888888888888---------------6666666-8888888--|
--99999999999-9999999999999-7777777777777-XXXXXXX-XXXXXXX--|
--77777777777-6666666666666-7777777777777-4444444-6666666--|
----------------------------5555555555555------------------|


CHORUS
------------------------------------------------------------|
------------------------------------------------------------|
--99999999999-8888888888888---------------6666666-44444444--|
--99999999999-9999999999999-7777777777777-6666666-44444444--|
--77777777777-6666666666666-7777777777777-4444444-22222222--|
----------------------------5555555555555-------------------|


SOLO
-----777------------12-12-12-12-12-12-12-11------12^11--14^11--12^11---|
-999-999-7-7^99-999--x--x--x--x--x--x--x----12-12-----12-----12-----12-|
-999-----8-8^99-999--9--9--9--9--9--9--9-------------------------------|
-----------------------------------------------------------------------|
-----------------------------------------------------------------------|
-----------------------------------------------------------------------|


SOLO
11^12^11-----11--------11-------14^11------14--12--11--12----12--11-----|
----------------12--------12-12------12-12---12--12--12---12---12-------|
---------/11-------11-----------------------------------------------13\-|
------------------------------------------------------------------------|
------------------------------------------------------------------------|
------------------------------------------------------------------------|


SOLO
9---9----11-11-14-14-16-16-17-17---------------------------|
--9---9---x--x--x--x--x--x--x--x--12-----------------------|
----------9--9-11-11-13-13-14-14-----14-13-11--------------|
----------------------------------------------14-13-11-9---|
-----------------------------------------------------------|
-----------------------------------------------------------|




PRE-CHORUS
---0----0----0----------------------|
---0----0----0----------------------|
-666--888--666----------------------|
-777--999--777-9--quick---9\--------|
-777--999--777-9---rest---6\--------|
-555--777--555-7----------7\--------|




CHORUS
-----------------------------------------------------------|
-----------------------------------------------------------|
--99999999999-8888888888888---------------6666666-8888888--|
--99999999999-9999999999999-7777777777777-XXXXXXX-XXXXXXX--|
--77777777777-6666666666666-7777777777777-4444444-6666666--|
----------------------------5555555555555------------------|


CHORUS
--------------------------------------------------------------------||
--------------------------------------------------------------------||
--99999999999-8888888888888---------------6666666-44444444----------||
--99999999999-9999999999999-7777777777777-6666666-44444444--2-------||
--77777777777-6666666666666-7777777777777-4444444-22222222--2-------||
----------------------------5555555555555-------------------0-------||
Tap to rate this tab
 
# A B C D E F G H I J K L M N O P Q R S T U V W X Y Z