Afi - Too Shy To Scream tab

Too Shy to Scream
BY A Fire Inside

INTRO/VERSE
Play 3 Xs
|-------------------------------------------|
|:-----------------------------------------:|
|---4\------------------4-4\----------------|
|---4\--xxxxxxxxxxxxxx--4-4\xxxxxxxxxxxxxx--|
|:--2\--xxxxxxxxxxxxxx--2-2\xxxxxxxxxxxxxx-:|
|-------xxxxxxxxxxxxxx------xxxxxxxxxxxxxx--|



VERSE
-----------------------------------------|
-----------------------------------------|
-----------------------------------------|
--9-11---12-12-12-12-12--12-12-12-12-12--|
--7--9---10-10-10-10-10---9--9--9--9--9--|
-----------------------------------------|



VERSE
------------------------------------------------------------|
------------------------------------------------------------|
-4\------------------4-4-Palm-Mute-----4-4-Palm-Mute----4-4-|
-4\--xxxxxxxxxxxxxx--4-4-============--4-4-==========-x-4-4-|
-2\--xxxxxxxxxxxxxx--2-2-222222222222--2-2-2222222222-x-2-2-|
-----xxxxxxxxxxxxxx------222222222222------2222222222-x-----|



VERSE
--------------------------------------------------------|
--------------------------------------------------------|
-----------------------------------------14-14-14-14-14-|
--9-11---12-12-12-12-12--12-12-12-12-12--14-14-14-14-14-|
--7--9---10-10-10-10-10---9--9--9--9--9--12-12-12-12-12-|
--------------------------------------------------------|



VERSE
-----------|
-----------|
-----------|
--2-4-5-7--|
--2-4-5-7--|
--0-2-3-5--|



CHORUS, Guitar One
----------------------------------------7-77-------------|
----------------------------------------7-77-------------|
----------------777777777777-6666666666-7-77-------------|
--5555555555555-777777777777-7777777777-9-99-9-11-12-14--|
--5555555555555-555555555555-4444444444-9-99-x--x--x--x--|
--3333333333333-555555555555-5555555555-7-77-7--9-10-12--|



CHORUS, Guitar One
---------------------------------------------------------------|
---------------------------------------------------------------|
----------------777777777777-6666666666------------------------|
--5555555555555-777777777777-7777777777-99-11-11-12-11-9--7-9\-|
--5555555555555-555555555555-4444444444-xx--x--x--x--x-x--x-9\-|
--3333333333333-555555555555-5555555555-77--9--9-10--9-7--5-7\-|



CHORUS, GUITAR TWO
--3------------5------------5------7------|
----3------------7------------5------7----|
------4------------7------------6------7--|
------------------------------------------|
------------------------------------------|
------------------------------------------|



CHORUS, GUITAR TWO
--3------------5------------5-------------------------------|
----3------------7------------5-----------------------------|
------4------------7------------6---------------------------|
-------------------------------------99-11-11-12-11-9--7-9\-|
-------------------------------------xx--x--x--x--x-x--x-9\-|
-------------------------------------77--9--9-10--9-7--5-7\-|



VERSE
Play 2 Xs
|-------------------------------------------|
|:-----------------------------------------:|
|---4\------------------4-4\----------------|
|---4\--xxxxxxxxxxxxxx--4-4\xxxxxxxxxxxxxx--|
|:--2\--xxxxxxxxxxxxxx--2-2\xxxxxxxxxxxxxx-:|
|-------xxxxxxxxxxxxxx------xxxxxxxxxxxxxx--|



VERSE
-----------------------------------------|
-----------------------------------------|
-----------------------------------------|
--9-11---12-12-12-12-12--12-12-12-12-12--|
--7--9---10-10-10-10-10---9--9--9--9--9--|
-----------------------------------------|



VERSE
------------------------------------------------------------|
------------------------------------------------------------|
-4\------------------4-4-Palm-Mute-----4-4-Palm-Mute----4-4-|
-4\--xxxxxxxxxxxxxx--4-4-============--4-4-==========-x-4-4-|
-2\--xxxxxxxxxxxxxx--2-2-222222222222--2-2-2222222222-x-2-2-|
-----xxxxxxxxxxxxxx------222222222222------2222222222-x-----|



VERSE
--------------------------------------------------------|
--------------------------------------------------------|
-----------------------------------------14-14-14-14-14-|
--9-11---12-12-12-12-12--12-12-12-12-12--14-14-14-14-14-|
--7--9---10-10-10-10-10---9--9--9--9--9--12-12-12-12-12-|
--------------------------------------------------------|



VERSE
-----------|
-----------|
-----------|
--2-4-5-7--|
--2-4-5-7--|
--0-2-3-5--|



CHORUS, Guitar One
----------------------------------------7-77-------------|
----------------------------------------7-77-------------|
----------------777777777777-6666666666-7-77-------------|
--5555555555555-777777777777-7777777777-9-99-9-11-12-14--|
--5555555555555-555555555555-4444444444-9-99-x--x--x--x--|
--3333333333333-555555555555-5555555555-7-77-7--9-10-12--|



CHORUS, Guitar One
---------------------------------------------------------|
---------------------------------------------------------|
----------------777777777777-6666666666------------------|
--5555555555555-777777777777-7777777777-99-11-11-12-11-9-|
--5555555555555-555555555555-4444444444-xx--x--x--x--x-x-|
--3333333333333-555555555555-5555555555-77--9--9-10--9-7-|



CHORUS, Guitar One
---------------------------------------------------|
---------------------------------------------------|
-12-12-12--11-11-11-11-11-11---11-11-11------------|
-12-12-12--12-12-12-12-12-12---12-12-12------------|PAUSE”
-10-10-10---9--9--9--9--9--9----9--9--9------------|
---------------------------------------------------|



CHORUS, GUITAR TWO
--3------------5------------5------7------|
----3------------7------------5------7----|
------4------------7------------6------7--|
------------------------------------------|
------------------------------------------|
------------------------------------------|



CHORUS, GUITAR TWO
--3------5------------5-----------------------10-10-10--9--9--9---------|
----3------7------------5---------------------12-12-10-10-10-10-“WILL---|
------4------7------------6-------------------12-12-12-11-11-11--YOU----|
-----------------------------99-11-11-12-11-9--------------------PAUSE“-|
-----------------------------xx--x--x--x--x-x---------------------------|
-----------------------------77--9--9-10--9-7---------------------------|



BRIDGE, PART A, PLAY TWICE…
|------------------------------------------------------------|
|:----------------------------------------------------------:|
|--PM---------------------------------9-9--------------------|
|--===========-9-99-====--77-77--====-X-X-===-4/5-55-=-4444--|
|:-XXXXXXXXXXX-X-XX-XXXX--XX-XX--XXXX-7-7-XXX-X/X-XX-X-XXXX-:|
|--XXXXXXXXXXX-7-77-XXXX--55-55--XXXX-----XXX-2/3-33-X-2222--|



BRIDGE, PART B
--------------------------------------------------------------|
--------------------------------------------------------------|
-------------------9-9-9-9-----------------4444/6666666-99999-|
--9-99-9--7777777--X-X-X-X---4/5-55-=-4444-XXXX/XXXXXXX-XXXXX-|
--X-XX-X--XXXXXXX--7-7-7-7---X/X-XX-X-XXXX-2222/4444444-77777-|
--7-77-7--5555555------------2/3-33-X-2222--------------------|



-----------|
-----------|
-----------|
--2-4-5-7--|
--2-4-5-7--|
--0-2-3-5--|



CHORUS, Guitar One
----------------------------------------7-77-------------|
----------------------------------------7-77-------------|
----------------777777777777-6666666666-7-77-------------|
--5555555555555-777777777777-7777777777-9-99-9-11-12-14--|
--5555555555555-555555555555-4444444444-9-99-x--x--x--x--|
--3333333333333-555555555555-5555555555-7-77-7--9-10-12--|



CHORUS, Guitar One
--------------------------------------------------------------|
--------------------------------------------------------------|
----------------777777777777-6666666666--“will-you-pause?”----|
--5555555555555-777777777777-7777777777----9---9---9----------|
--5555555555555-555555555555-4444444444----9---9---9----------|
--3333333333333-555555555555-5555555555----7---7---7----------|



-----------|
-----------|
-----------|
--2-4-5-7--|
--2-4-5-7--|
--0-2-3-5--|



CHORUS, Guitar One
----------------------------------------7-77-------------|
----------------------------------------7-77-------------|
----------------777777777777-6666666666-7-77-------------|
--5555555555555-777777777777-7777777777-9-99-9-11-12-14--|
--5555555555555-555555555555-4444444444-9-99-x--x--x--x--|
--3333333333333-555555555555-5555555555-7-77-7--9-10-12--|



CHORUS, Guitar One
---------------------------------------------------------|
---------------------------------------------------------|
----------------777777777777-6666666666------------------|
--5555555555555-777777777777-7777777777-99-11-11-12-11-9-|
--5555555555555-555555555555-4444444444-xx--x--x--x--x-x-|
--3333333333333-555555555555-5555555555-77--9--9-10--9-7-|



CHORUS, Guitar One
--------------------------------------------------|
--------------------------------------------------|
-12-12-12--11-11-11-11-11-11----will-you-pause----|
-12-12-12--12-12-12-12-12-12----9----9---9--------|
-10-10-10---9--9--9--9--9--9----9----9---9--------|
--------------------------------7----7---7--------|



CHORUS, GUITAR TWO, PLAY TWICE
|---3------------5------------5------7--------| --WILL--|
|:-----3------------7------------5------7----:| --------|
|--------4------------7------------6------7---| --YOU---|
|---------------------------------------------| --------|
|:-------------------------------------------:| --PAUSE-|
|---------------------------------------------| --------|



CHORUS, GUITAR TWO
--3------5------------5-----------------------10-10-10--9--9--9---------|
----3------7------------5---------------------12-12-10-10-10-10-“WILL---|
------4------7------------6-------------------12-12-12-11-11-11--YOU----|
-----------------------------99-11-11-12-11-9--------------------PAUSE“-|
-----------------------------xx--x--x--x--x-x---------------------------|
-----------------------------77--9--9-10--9-7---------------------------|



CHORUS, GUITAR TWO
The tiny Solo that you can barely hear...

--3------0-2-3-5---3-2-0--------------10\\\-------------------------|
----3--------------------3-2---5-3-2--Strong-Slide---0-let----------|
-----------------------------------------------------4-ring---------|
--------------------------------------------------------------------|
--------------------------------------------------------------------|
--------------------------------------------------------------------|
Tap to rate this tab
 
# A B C D E F G H I J K L M N O P Q R S T U V W X Y Z