Song name
# A B C D E F G H I J K L M N O P Q R S T U V W X Y Z

Afi - Dont Make Me Ill tab

-------------------------------------------------------------------------------
			     Don't Make Me Ill - AFI
-------------------------------------------------------------------------------
Tabbed by: That Dude
Email:

Tuning: Standard

Intro

e|-----------------------------------------------|
B|-----------------------------------------------|
G|-7-7-7-7-7-------------------------------------|  x4
D|-7-7-7-7-7-------------------------------------|
A|-5-5-5-5-5--5-5-5-5--5--5-5-5-5-5-5-5-5-5-5----|
E|------------2-2-3-3--2--3-3-3-3-3-3-3-3-3-3----|

e|----------------------------------------------------------|
B|----------------------------------------------------------|
G|----------------------------------------------------------|
D|-7-7-7-7-7-7-7-7-7-7-7-6-7-7-7-6-7-7-7-6-7-7-7-6-7-7-7----|
A|-7-7-7-7-7-7-7-7-7-7-7-6-7-7-7-6-7-7-7-6-7-7-7-6-7-7-7----|
E|-5-5-5-5-5-5-5-5-5-5-5-4-5-5-5-4-5-5-5-4-5-5-5-4-5-5-5----|

Verse

e|------------------------------------------------------------------------------------|
B|------------------------------------------------------------------------------------|
G|-7-7-7-7-7-------------------------------7-7-7-7-7----------------------------------|   x2
D|-7-7-7-7-7-5-5-5-5-5-7-7-7-7-7-7-7-7-7-7-7-7-7-7-7-7-7-7-7-7-5-5-5-5-5-7-7-7-7-7----|
A|-5-5-5-5-5-5-5-5-5-5-7-7-7-7-7-7-7-7-7-7-5-5-5-5-5-7-7-7-7-7-5-5-5-5-5-7-7-7-7-7----|
E|-----------3-3-3-3-3-5-5-5-5-5-5-5-5-5-5-----------5-5-5-5-5-3-3-3-3-3-5-5-5-5-5----|

Pre-Chorus

e|------------------------------------------------------------------------------------|
B|------------------------------------------------------------------------------------|
G|-----------------------------------------7-7-7-7-7----------------------------------|
D|-5-5-5-5-5-7-7-7-7-7-9-9-9-9-9-5-5-5-5-5-7-7-7-7-7-5-5-5-5-5-7-7-7-7-7-5-5-5-5-5----|
A|-5-5-5-5-5-7-7-7-7-7-9-9-9-9-9-5-5-5-5-5-5-5-5-5-5-5-5-5-5-5-7-7-7-7-7-5-5-5-5-5----|
E|-3-3-3-3-3-5-5-5-5-5-7-7-7-7-7-3-3-3-3-3-----------3-3-3-3-3-5-5-5-5-5-3-3-3-3-3----|

Chorus

e|--------------------------------------------|
B|--------------------------------------------|
G|-7-7-7-7-7----------------------------------|   x2
D|-7-7-7-7-7-7-7-7-7-7-9-9-9-9-9-5-5-5-5-5----|
A|-5-5-5-5-5-7-7-7-7-7-9-9-9-9-9-5-5-5-5-5----|
E|-----------5-5-5-5-5-7-7-7-7-7-3-3-3-3-3----|

Post-chorus

e|------------------------------------------------------------------------------------|
B|------------------------------------------------------------------------------------|
G|-----------------------------------------------------------------------7-7-7-7-7----|   x4
D|-7-7-7-7-7-7-7-7-7-7-5-5-5-5-5-5-5-5-5-5-7-7-7-7-7-7-7-7-7-7-5-5-5-5-5-7-7-7-7-7----|
A|-7-7-7-7-7-7-7-7-7-7-5-5-5-5-5-5-5-5-5-5-7-7-7-7-7-7-7-7-7-7-5-5-5-5-5-5-5-5-5-5----|
E|-5-5-5-5-5-5-5-5-5-5-3-3-3-3-3-3-3-3-3-3-5-5-5-5-5-5-5-5-5-5-3-3-3-3-3--------------|
(On the 3rd and 4th time palm mute)

Solo

e|-------------------------------------|
B|-------------------------------------|
G|----------------------6h7-9-7-6------|   x2
D|-----4h5-7-5-4----7-7-----------7----|
A|-5-5-----------5---------------------|
E|-------------------------------------|

e|----------------------------------|
B|----------------------------------|
G|-------------------------6h7-9----|   x2
D|-----4h5-7-5-4----7-7--7----------|
A|-5-5-----------5--7-7-------------|
E|------------------5-5-------------|

Interlude?

e|--------------------------------|
B|--------------------------------|
G|-7~-----------------------------|
D|-7~-----------------------------|
A|-5~-----------------------------|
E|--------------------------------|

Outro

e|-----------------------------------|
B|-----------------------------------|
G|-7~-------7------------------------|
D|-7~-------7------------------------|
A|-5~-------5------------------------|
E|-----------------------------------|




Order Of Song:
Intro
Verse
Pre-Chorus
Verse
Pre-Chorus
Chorus
Post-Chorus
Solo
Chorus x3
Interlude
Chorus(Faster) x2
Outro

That should be correct let me know if you have any corrections.

************************************

| /   slide up
| \   slide down
| h   hammer-on
| p   pull-off
| ~   vibrato
| +   harmonic
| x   Mute note
| b   Bend
| pb  Pre-bend
| br  Bend release
| pbr Pre-bend release
| brb Bend release bend

************************************
Tap to rate this tab
 
# A B C D E F G H I J K L M N O P Q R S T U V W X Y Z