Song name
# A B C D E F G H I J K L M N O P Q R S T U V W X Y Z

Afi - File 13 tab

ARTIST:A.F.I.(when they were still "a few idiots")
ALBUM :Very Proud Of Ya
TUNING:Drop-D (standard sounds fine)
SOUND :Distortion

This song is really easy to play.Just a bunch of quick downward strokes except the solo...Great for beginners!

INTRO/VERSE 

|---------------------------------------------------------------------|
|---------------------------------------------------------------------|
|---------------------------------------------------------------------|
|----------------------------------------------------------------7----|
|--9-9-9-9-9-9--7--9-9-9-9-9-9--7--9-9-9-9-9-9--12--5-5-5-5--7-7-5-7--|
|--7-7-7-7-7-7--5--7-7-7-7-7-7--5--7-7-7-7-7-7--10--3-3-3-3--5-5---5--|

BRIDGE/VERSE

|------------------------------------------|
|------------------------------------------|
|------------------------------------------|
|------------------------------------------|
|--7-7-7-7--12-12-12-12--5-5-5-5--7-7-7-7--|
|--9-9-9-9--10-10-10-10--7-7-7-7--9-9-9-9--|

SOLO (penatonic scale)

|--------------------------------13-16-16-13--------------------------------|
|--------------------------13-17-------------17-13--------------------------|
|--------------------13-17-------------------------17-13--------------------|
|--------------13-17-------------------------------------17-13--------------|
|--------13-16-------------------------------------------------16-13--------|
|--13-16-------------------------------------------------------------16-13--|

~ORDER~

INTRO X 4
VERSE X 4
INTRO X 2
VERSE X 4
SOLO  X 2
INTRO X 2
VERSE X 4
VERSE X 4 (palm mute)

good times...good times...
Tap to rate this tab
# A B C D E F G H I J K L M N O P Q R S T U V W X Y Z