Song name
# A B C D E F G H I J K L M N O P Q R S T U V W X Y Z

Afi - Ever And A Day tab

i played it with the song, it sounds perfect.
i added the lyrics to make it easier.
just read it straight through.
i didnt use any repeats or anything

its a really great song, and its really fun to play.
=]

. = pm
< = pick slide
/ = slide up
\ = slide dow
* = harmonics
~ = let ring

intro:
|--------------------------------------------------------------|
|--------------------------------------------------------------|
|---8-8-8---7-7-7---8-8---5-5-5---8-8-8---10-10-10---12-12-12--|
|---x-x-x---x-x-x---x-x---x-x-x---x-x-x----x--x--x----x--x--x--|
|---6-6-6---5-5-5---6-6---3-3-3---6-6-6----8--8--8---10-10-10--|
|--------------------------------------------------------------|

|-----------------------------------------------------|
|-----------------------------------------------------|
|-10-10-10---8-8-8---10-10-10---8-8-8---7-7-7---------|
|--x--x--x---x-x-x----x--x--x---x-x-x---x-x-x---------|
|--8--8--8---6-6-6----8--8--8---6-6-6---5-5-5---------|
|-----------------------------------------------------|

|--------------------------------------------------------------------|
|--------------------------------------------------------------------|
|---8-8-8---7-7-7---8-8---5-5-5---8-8-8---10-10-10---12-12-12-12-12--|
|---x-x-x---x-x-x---x-x---x-x-x---x-x-x----x--x--x----x--x--x--x--x--|
|---6-6-6---5-5-5---6-6---3-3-3---6-6-6----8--8--8---10-10-10-10-10--|
|--------------------------------------------------------------------|


|----------------------------------------------|
|----------------------------------------------|
|--13-13---10-10-10-10-10-10-10-10-------------|
|---x--x----x--x--x--x--x--x--x--x-------------|
|--11-11----8--8--8--8--8--8--8--8-------------|
|----------------------------------------------|
             pm ..................

|--------------------------------------------------------------|
|--------------------------------------------------------------|
|---8-8-8---7-7-7---8-8---5-5-5---8-8-8---10-10-10---12-12-12--|
|---x-x-x---x-x-x---x-x---x-x-x---x-x-x----x--x--x----x--x--x--|
|---6-6-6---5-5-5---6-6---3-3-3---6-6-6----8--8--8---10-10-10--|
|--------------------------------------------------------------|

|-----------------------------------------------------|
|-----------------------------------------------------|
|-10-10-10---8-8-8---10-10-10---8-8-8---7-7-7---------|
|--x--x--x---x-x-x----x--x--x---x-x-x---x-x-x---------|
|--8--8--8---6-6-6----8--8--8---6-6-6---5-5-5---------|
|-----------------------------------------------------|

|--------------------------------------------------------------------|
|--------------------------------------------------------------------|
|---8-8-8---7-7-7---8-8---5-5-5---8-8-8---10-10-10---12-12-12-12-12--|
|---x-x-x---x-x-x---x-x---x-x-x---x-x-x----x--x--x----x--x--x--x--x--|
|---6-6-6---5-5-5---6-6---3-3-3---6-6-6----8--8--8---10-10-10-10-10--|
|--------------------------------------------------------------------|


|----------------------------------------------|
|----------------------------------------------|
|--13-13---10-10-10-10-10-10-10-10-------------|
|---x--x----x--x--x--x--x--x--x--x-------------|
|--11-11----8--8--8--8--8--8--8--8-------------|
|----------------------------------------------|

verse:
|--------------------------------------------------------------------------|
|--------------------------------------------------------------------------|
|--------------------------------------------------------------------------|
|-----------10---------------10-----------------10---------------10--------|
|--------------------------------------------------------------------------|
|---8-8-8-8----8-8-8---8-8-8----8-8-8---8-8-8-8----8-8-8---8-8-8----8-8-8--|
 pm......................................................................
               lie in the compfort...                   of sweet calamity...

|----------------------------------------------------------------------------------|
|----------------------------------------------------------------------------------|
|----------------------------------------------------------------------------------|
|--------------13-------------------8------------------10---------------10---------|
|----------------------------------------------------------------------------------|
|--11-11-11-11----11-11-11---6-6-6-----6-6-6---8-8-8-8----8-8-8---8-8-8-----8-8-8--|
 ..................................................................................
                     with           nothing left to lose...

|------------------------------------------------------------------------|
|------------------------------------------------------------------------|
|------------------------------------------------------------------------|
|----------10--------------10-----------------10---------------10--------|
|------------------------------------------------------------------------|
|--8-8-8-8----8-8-8---8-8-8----8-8-8---8-8-8-8----8-8-8---8-8-8----8-8-8-|
 pm......................................................................
               lie in the darkness                     im slowly drown to

|---------------------------|
|---------------------------|
|---------------------------|
|-------------13------------|
|---------------------------|
|-11-11-11-11----11-11-11---|
 ..........................
 sleep...          with


|--------------------------------------------------------------------------|
|--------------------------------------------------------------------------|
|--------------------------------------------------------------------------|
|-------8-----------------10--------------10--------------------13---------|
|--------------------------------------------------------------------------|
|-6-6-6---6-6-6---8-8-8-8---8-8-8---8-8-8---8-8-8---11-11-11-11---11-11-11-|
  pm.................................................slowly release pm
  nothing left to lose...                               woah oh...   the
                       bridge:
|----------------------------------------------<---|
|----------------------------------------------<---|
|----------------------------------------------<---|
|-------8-----------10-10-10-10-10-10-10-10----<---|
|-------------------10-10-10-10-10-10-10-10----<---|
|-6-6-6----6-6-6-----8--8--8--8--8--8--8--8----<---|
  tears ive saved for you

|-------------------------------------------|
|-------------------------------------------|
|-8-8-8---------------------------12--10----|
|-8-8-8--8-8-8--8/10-10-10-10-10--12--10----|
|-6-6-6--8-8-8--8/10-10-10-10-10--10---8----|
|--------6-6-6--6/-8--8--8--8--8------------|


|--------------------------------------------------|
|--------------------------------------------------|
|--8-8-8-------------------------------------------|
|--8-8-8--8-8--10-10-10-10-10-10-10-10-------------|
|--6-6-6--8-8--10-10-10-10-10-10-10-10-------------|
|---------6-6---8--8--8--8--8--8--8--8-------------|
               pm................release


verse 2(distortion):
|-----------------------------------------------------------------------|
|-----------------------------------------------------------------------|
|-----------------------------------------------------------------------|
|----------10--------------10-----------------10---------------10-------|
|-----------------------------------------------------------------------|
|-8-8-8-8----8-8-8---8-8-8----8-8-8---8-8-8-8----8-8-8---8-8-8----8-8-8-|
pm.....................................................................
               i retrace the steps that led me here but nothing lies...

|-----------------------------------------|
|-----------------------------------------|
|-----------------------------------------|
|-------------13-----------------8--------|
|-----------------------------------------|
|-11-11-11-11----11-11-11--6-6-6----6-6-6-|
.........................................
                            behind me...

|--------------------------------------|
|--------------------------------------|
|--------------------------8-----8-----|
|---------10-----------------10--------|
|--------------------------------------|
|-8-8-8-8----8-8-8---8-8-8-------------|
 pm...................................


|-----------------------------------------------------------------------|
|-----------------------------------------------------------------------|
|-----------------------------------------------------------------------|
|---------10---------------10----------------10-----------------10------|
|-----------------------------------------------------------------------|
|-8-8-8-8----8-8-8---8-8-8----8-8-8---8-8-8-8----8-8-8---8-8-8----8-8-8-|
  pm......................................................................
                so i lie in the feild and in the light that loves me

|--------------------------------------------------------------------------|
|--------------------------------------------------------------------------|
|--------------------------------------------------------------------------|
|------------13------------------8----------------10---------------10------|
|--------------------------------------------------------------------------|
|-11-11-11-11---11-11-11---6-6-6---6-6-6---8-8-8-8---8-8-8---8-8-8---8-8-8-|
pm........................................................................               
      with     nothing left to lose...


|--------------------------------------------------------------------------|
|--------------------------------------------------------------------------|
|--------------------------------------------------------------------------|
|-------------13------------------8----------10-10-10-10-10-10-10-10-------|
|--------------------------------------------10-10-10-10-10-10-10-10-------|
|-11-11-11-11----11-11-11---6-6-6----6-6-6----8--8--8--8--8--8--8--8-------|
 ...............................................slowly release
                       the tears ive saved for you...       will you

  chorus:
|----------------------------------------------|
|----------------------------------------------|
|-8-8-8--------------------------12--10--------|
|-8-8-8--8-8-8-8-10-10-10-10-10--12--10--------|
|-6-6-6--8-8-8-8-10-10-10-10-10--10---8--------|
|--------6-6-6-6--8--8--8--8--8----------------|
  be my...    be my beloved...  will you


|----------------------------------------------|
|----------------------------------------------|
|-8-8-8--------------------------12--10--------|
|-8-8-8--8-8-8-8-10-10-10-10-10--12--10--------|
|-6-6-6--8-8-8-8-10-10-10-10-10--10---8--------|
|--------6-6-6-6--8--8--8--8--8----------------|
 help... help me to get through  will you

|----------------------------------------------|
|----------------------------------------------|
|-8-8-8--------------------------12--10--------|
|-8-8-8--8-8-8-8-10-10-10-10-10--12--10--------|
|-6-6-6--8-8-8-8-10-10-10-10-10--10---8--------|
|--------6-6-6-6--8--8--8--8--8----------------|
 be my...  be my destruction    will you

|-----------------------------------------------------------|
|-----------------------------------------------------------|
|-8-8-8-----------------------------------------------------|
|-8-8-8--8-8-8-8-10-10-10-10-10-10-10-10-10-10-10-10-10-10--|
|-6-6-6--8-8-8-8-10-10-10-10-10-10-10-10-10-10-10-10-10-10--|
|--------6-6-6-6--8--8--8--8--8--8--8--8--8--8--8--8--8--8--|
                 pm.............................release
 help...    help me to be through..

bridge 2:

(rest)
oh! ohh!
oh! ohoh!
oh! ohh!

|--?*~--<-------------------------------------------------------|
|--?*~--<-------------------------------------------------------|
|--?*~--<-----------------------8--------------------------8----|
|--?*~--<--8/10-10-10-10-10--8--8--8--8/10-10-10-10-10--8--8--8-|
|--?*~--<--8/10-10-10-10-10--8--6--8--8/10-10-10-10-10--8--6--8-|
|--?*~--<--6/-8--8--8--8--8--6-----6--6/-8---8---8---8--6-----6-|
  oh! ohh!   oh! ohoh!                   oh! ohoh!

|--------------------------------------------------|
|--------------------------------------------------|
|----------------------8---------------------------|
|-8/10-10-10-10-10--8--8--8--10-10-10-10-10-10-10--|
|-8/10-10-10-10-10--8--6--8--10-10-10-10-10-10-10--|
|-6/-8---8---8--8---6-----6---8--8--8--8--8--8--8--|
                           pm.............release
  oh! ohoh!                  oh! ohoh!

(rest)
will you!

  chorus:
|----------------------------------------------|
|----------------------------------------------|
|-8-8-8--------------------------12--10--------|
|-8-8-8--8-8-8-8-10-10-10-10-10--12--10--------|
|-6-6-6--8-8-8-8-10-10-10-10-10--10---8--------|
|--------6-6-6-6--8--8--8--8--8----------------|
  be my...    be my beloved...  will you


|----------------------------------------------|
|----------------------------------------------|
|-8-8-8--------------------------12--10--------|
|-8-8-8--8-8-8-8-10-10-10-10-10--12--10--------|
|-6-6-6--8-8-8-8-10-10-10-10-10--10---8--------|
|--------6-6-6-6--8--8--8--8--8----------------|
 help... help me to get through..will you

|--------------------------------------------------------------------------|
|--------------------------------------------------------------------------|
|-8-8-8--------------------------12--10------------------------------------|
|-8-8-8--8-8-8-8-10-10-10-10-10--12--10----8~---------8----8~-----------10~|
|-6-6-6--8-8-8-8-10-10-10-10-10--10---8----6~---------8----8~-----------10~|
|--------6-6-6-6--8--8--8--8--8------------6~---------6----6~------------8~|
 be my...  be my destruction    will you  help..the tears ive saved for you


well thats it x]
sorry about the ?*
i couldnt figure out what fret jade did the harmonics on lol
Tap to rate this tab
# A B C D E F G H I J K L M N O P Q R S T U V W X Y Z