Song name
# A B C D E F G H I J K L M N O P Q R S T U V W X Y Z

Afi - I Wanna Get A Mohawk tab

-------------------------------------------|
                 I Wanna Get A Mohawk-AFI -|
Tabbed by:humanblasphemy1

Tuning:standard
intro
e|---------------------------------------------------------------------------------------|
B|---------------------------------------------------------------------------------------|
G|--------5---------------5-------------5------------------------------------------------|
D|---7----3----5-----7----3---5-----7---3---5----7---------------------------------------|
A|---5---------3-----5--------3-----5-------3----5---------------------------------------|
E|---------------------------------------------------------------------------------------|
verse
e|---------------------------------------------------------------------------------------|
B|---------------------------------------------------------------------------------------|
G|---------------------------------------------------------------------------------------|
D|---7-7-7-7-7-7-7-7-7-------------------------------------------------------------------|
A|---5-5-5-5-5-5-5-5-5--8-8-8-8----------------------------------------------------------|
E|----------------------6-6-6-6----------------------------------------------------------|
chorus
e|-------------------------------------------|
B|-------------------------------------------|
G|-------------------------------------------|
D|--7-7--10--9-------------7-7-7--10--9------|
A|--5-5--8---7--10---x2----5-5-5---8--7--10--|
E|--------------8-------------------------8--|
end
e|------------------------------------|
B|------------------------------------|
G|-------------5-------------------5--|
D|--7-7-7-7-7--3--5---7-7-7-7-7--3-3--|
A|--5-5-5-5-5-----3---5-5-5-5-5--1----|
E|------------------------------------|

song order:
Intro x2
verse x4
chorus x2
verse x4
chorus x2
end
intro x2
Tap to rate this tab
# A B C D E F G H I J K L M N O P Q R S T U V W X Y Z