Song name
# A B C D E F G H I J K L M N O P Q R S T U V W X Y Z

Afi - Endlessly She Said tab

Artist: AFI
Song: Enslessly, She Said
Album: Decemberunderground
Guitarist: Jade Puget
Tuning: Drop C# (Eb tuning then drop D)
Guitar: Electric
Tabbed by: Grant Webster - tnarg_w@hotmail.com

6/8 

Note: Most tabs on this site have the general body of the song 
correct but most neglect  that this song is played in drop Db 
tuning (Eb standard then drop D), without this tuning you can't 
hit the low notes on the E string in the chorus and bridge. As 
far as I can tell this tab is nearly 100% accurate. In this tab 
all the notes played are indicated except in times of continuous 
strumming.

[Intro/First Verse] - Clean

eb|---2-------0-------2-----2-----0---------------------|
Bb|-----3---2---2-2h3---3-----3-----3---2---------------|
Gb|-4-----4---------------4-----2-----2-----------------|
Db|---------------------------------------9--9-9-9----9-|
Ab|---------------------------------------10-9-9-10-9-9-|
Db|---------------------------------------9--9-9-9--9-9-|

eb|---2-------0-------2---3-------0---------------------|
Bb|-----3---2---2-2h3-------3-------3---2---------------|
Gb|-4-----4-------------4-----4-2-----2-----------------|
Db|---------------------------------------9--9-9-9--9-9-|
Ab|---------------------------------------10-9-9-10-9-9-|
Db|---------------------------------------9--9-9-9--9-9-|

eb|-2~-|-----0-----------------|
Bb|-3~-|---3---2---------------|
Gb|-4~-|-2---------------------|
Db|----|---------9--9-9-9--9-9-|
Ab|----|---------10-9-9-10-9-9-|
Db|----|---------9--9-9-9--9-9-|

eb|---2---------0-----2---3-------0---------------|
Bb|-----3---2-----2h3-------3-------3---2---------|
Gb|-4-----4---4---------4-----4-2-----2-----------|
Db|-----------------------------------------------|
Ab|---------------------------------------10-9-10-|
Db|---------------------------------------9--9-9--|
                                     ---> distortion on

eb|--------------------------------------------------------------|
Bb|--------------------------------------------------------------|
Gb|----------7-7-7-6-6-6-----9-9-9-7-7-7-----7-7-7-6-6-6---------|
Db|----0-7/9-------------7/9-------------7/9---------------------|
Ab|----0-7/9-------------7/9-------------7/9-------------10-9-10-|
Db|-9\-0-7/9-------------7/9-------------7/9-------------9--9-9--|

eb|--------------------------------------------------------------------------------------|
Bb|--------------------------------------------------------------------------------------|
Gb|------------7-7-7-6-6-6-------9-9-9-7-7-7-------11-11-11-9-9-9------------------------|
Db|----7h9-7/9-------------7-7/9-------------7-7/9------------------------9-9-9--9-9-7-5-|
Ab|----7h9-7/9-------------7-7/9-------------7-7/9----------------10-9-10-9-9-10-9-9-7-5-|
Db|-9\-7h9-7/9-------------7-7/9-------------7-7/9----------------9--9-9--9-9-9--9-9-7-5-|

[Chorus] - distortion


eb|------------------------------------------------|
Bb|------------------------------------------------|
Gb|-------------9/11-11-11-11-11-------------------|
Db|-9-9-9-9-9-9-x/x--x--x--x--x--7-7-9-9-11-11-7-5-|
Ab|-9-9-9-9-9-9-7/9--9--9--9--9--7-7-7-7-7--7--7-5-|
Db|-9-9-9-9-9-9-0-0--0--0--0--0--7-7-7-7-7--7--7-5-|

eb|------------------------------------------------|
Bb|------------------------------------------------|
Gb|-------------9/11-11/12-12-12-------------------|
Db|-9-9-9-9-9-9-x/x--x-/x--x--x--11-11-9-9-7-7-7-5-|
Ab|-9-9-9-9-9-9-7/9--9-/10-10-10-7--7--7-7-7-7-7-5-|
Db|-9-9-9-9-9-9-0-0--0--0--0--0--7--7--7-7-7-7-7-5-|
                                                         
eb|----------------------------|
Bb|----------------------------|
Gb|----------------------------|
Db|-9-9-9-9-9-9-9-9-9-9-9-9-9~-|
Ab|-9-9-9-9-9-9-9-9-9-9-9-9-9~-|
DB|-9-9-9-9-9-9-9-9-9-9-9-9-9~-|
       delay on this chord--^

[Second Verse] - Clean

eb|---------<7>---------<12>---------|
Bb|-----<7>---------<7>--------------|
Gb|-<7>---------<7>------------------|
Db|----------------------------------|
Ab|--------------------------10-9-10-|
Db|--------------------------9--9-9--|
                        ---> distortion on

eb|--------------------------------------------------------------|
Bb|--------------------------------------------------------------|
Gb|----------7-7-7-6-6-6-----9-9-9-7-7-7-----7-7-7-6-6-6---------|
Db|----0-7/9-------------7/9-------------7/9---------------------|
Ab|----0-7/9-------------7/9-------------7/9-------------10-9-10-|
Db|-9\-0-7/9-------------7/9-------------7/9-------------9--9-9--|

eb|----------------------------------------------------------------------------------|
Bb|----------------------------------------------------------------------------------|
Gb|------------7-7-7-6-6-6-------9-9-9-7-7-7-------11-11-11-9-9-9--------------------|
Db|----7h9-7/9-------------7-7/9-------------7-7/9----------------9--9-9-9--9-9--7-5-|
Ab|----7h9-7/9-------------7-7/9-------------7-7/9----------------10-9-9-10-9-9--7-5-|
Db|-9\-7h9-7/9-------------7-7/9-------------7-7/9----------------9--9-9-9--9-9--7-5-|

[Chorus] - distortion

eb|------------------------------------------------|
Bb|------------------------------------------------|
Gb|-------------9/11-11-11-11-11-------------------|
Db|-9-9-9-9-9-9-x/x--x--x--x--x--7-7-9-9-11-11-7-5-|
Ab|-9-9-9-9-9-9-7/9--9--9--9--9--7-7-7-7-7--7--7-5-|
Db|-9-9-9-9-9-9-0-0--0--0--0--0--7-7-7-7-7--7--7-5-|

eb|------------------------------------------------|
Bb|------------------------------------------------|
Gb|-------------9/11-11/12-12-12-------------------|
Db|-9-9-9-9-9-9-x/x--x-/x--x--x--11-11-9-9-7-7-7-5-|
Ab|-9-9-9-9-9-9-7/9--9-/10-10-10-7--7--7-7-7-7-7-5-|
Db|-9-9-9-9-9-9-0-0--0--0--0--0--7--7--7-7-7-7-7-5-|
                                                    
eb|-------------------------------|
Bb|-------------------------------|
Gb|-------------------------------|
Db|-9-9-9-9-9-9-9-9-9-9-9-9-9-9-9-|
Ab|-9-9-9-9-9-9-9-9-9-9-9-9-9-9-9-|
Db|-9-9-9-9-9-9-9-9-9-9-9-9-9-9-9-|

[Bridge] - distortion

eb|---------10--------------------------10-----------------|
Bb|-7h8--------8----------------7h8--------8---------------|
Gb|-----9-9------9------------------9-9------9-------------|
Db|----------------9-9-9-9-9-9-----------------9-9-9-9-9-9-|
Ab|----------------9-9-9-9-9-9-----------------9-9-9-9-9-9-|
Db|----------------9-9-9-9-9-9-----------------9-9-9-9-9-9-|
                   . . .                       . . .

eb|---------10----------------------------------|
Bb|-7h8--------8--------------------------------|
Gb|-----9-9------9------------------------------|
Db|----------------9-9-9-9-9-7-5~-7-9-9-9-5/7-7-|
Ab|----------------9-9-9-9-9-7-5~-5-5-5-5-5/7-7-|
Db|----------------9-9-9-9-9-7-5~-5-5-5-5-5/7-7-|
                   . . . 

[Solo] - distortion

eb|---------10-----------------------------------|
Bb|-7h8--------8---------------------------------|
Gb|-----9-9------9-------------------------------|
Db|----------------------11-11-11-------11h12-12-|
Ab|-------------------------------12-12----------|
Db|----------------9-9-9-------------------------|

eb|---------10-------------------------------------|
Bb|-7h8--------8-----------------------------------|
Gb|-----9-9------9---------------------<7>-<7>-----|
Db|----------------------------<7>-<7>---------<9>-|
Ab|----------------------7h9-9---------------------|
Db|----------------7h9-9---------------------------|

eb|-------------------<12>----------------------------------|
Bb|-7-7h8---------<7>---------------------------------------|
Gb|-------9-9-<5>----------------------------11/12\11-------|
Db|------------------------9-9-9-12-12-12-0~-x-/x-\x--5-7/9-|
Ab|------------------------9-9-9----------0~-9-/10\9--5-----|
Db|------------------------9-9-9----------0~----------5-----|

[End of bridge] - distortion

eb|----------------------------------------------------------|
Bb|----------------------------------------------------------|
Gb|-11~--------11/12~--------12/14~------16~----17~------19b-| <-- played on second guitar
Db|------------------9-9-9--9-9-9----9-9-9--9-9-9----9-9-7---|     overdubbed
Ab|-10-9-9-10-9-9-10-9-9-10-9-9-9h10-9-9-10-9-9-9h10-9-9-7---|
Db|-9--9-9-9--9-9-9--9-9-9--9-9-9----9-9-9--9-9-9----9-9-7---|
    .  . . .  . . .  . . .  . . .      
        gradually ease mute----->

[Guitar interlude] - clean

eb|----------------------------------------------------|
Bb|----------------------------------------------------|
Gb|----------------------------------------------------|
Db|---12-----12------------------------7-----9-----11~-|
Ab|------9------9---7h9-9-9-9h10p9-7-----7-----7---7~--|
Db|-9------9------9-0---0-0-0-0--0-0-7-----7-----7-7~--|
                              delay on this chord--^

[Last chorus] - distortion

eb|------------------------------------------------|
Bb|------------------------------------------------|
Gb|-------------9/11-11-11-11-11-------------------|
Db|-9-9-9-9-9-9-x/x--x--x--x--x--7-7-9-9-11-11-7-5-|
Ab|-9-9-9-9-9-9-7/9--9--9--9--9--7-7-7-7-7--7--7-5-|
Db|-9-9-9-9-9-9-0-0--0--0--0--0--7-7-7-7-7--7--7-5-|

eb|------------------------------------------------|
Bb|------------------------------------------------|
Gb|-------------9/11-11/12-12-12-------------------|
Db|-9-9-9-9-9-9-x/x--x-/x--x--x--11-11-9-9-7-7-7-9-|
Ab|-9-9-9-9-9-9-7/9--9-/10-10-10-7--7--7-7-7-7-7-5-|
Db|-9-9-9-9-9-9-0-0--0--0--0--0--7--7--7-7-7-7-7-5-|

eb|------------------------------------------------------|
Bb|------------------------------------------------------|
Gb|-------------------9/11-11-12/14-14-------------------|
Db|-12-12-12-12-12-12-x/x--x--x-/x--x--7-7-9-9-11-11-7-5-|
Ab|-9--9--9--9--9--9--7/9--9--10/12-12-7-7-7-7-7--7--7-5-|
Db|-9--9--9--9--9--9--0-0--0--0--0--0--7-7-7-7-7--7--7-5-|

[Outro] - distortion

eb|-----------------------------------------------|
Bb|-----------------------------------------------|
Gb|--------------------------------------11-11-11-|
Db|-9-9/11/12-12/14\11-11-11-11-11-11-11-x--x--x--|
Ab|-x-x/x-/x--x-/x-\x--x--x--x--x--x--x--9--9--9--|
Db|-9-9/11/12-12/14\11-11-11-11-11-11-11----------|

eb|---------------------------------------------------|
Bb|---------------------------------------------------|
Gb|---------------------------------------------------|
Db|-9--9-9-9--9-9-7-7-7-7-7-7-5-5-5-5-5-5-7-7-7-7-7-7-|
Ab|-10-9-9-10-9-9-9-7-7-9-7-7-7-5-5-7-5-5-9-7-7-9-7-7-|
Db|-9--9-9-9--9-9-7-7-7-7-7-7-5-5-5-5-5-5-7-7-7-7-7-7-|

eb|-----------------------------------------------------------------|
Bb|-----------------------------------------------------------------|
Gb|-----------------------------------------------------------------|
Db|-9--9-9-9--9-9-7-7-7-7-7-7-5-5-5-5-5-5---------8-8---------11-11-|
Ab|-10-9-9-10-9-9-9-7-7-9-7-7-7-5-5-7-5-5-----9-9---------9-9-------|
Db|-9--9-9-9--9-9-7-7-7-7-7-7-5-5-5-5-5-5-7-7---------8-8-----------|

[Outro] - clean

eb|------------------------------------------|
Bb|------------------------------------------|
Gb|------------------------------------------|
Db|------------------------------------------|
Ab|------------------------------------------|
Db|-9-9-11/12-12/14-11-\7-/16-17-14-16-12-\8-|

Key:

/ - slide down
\ - slide up
. - palm mute
<> - harmonic note
x - dead note
~ - let ring
h hammer on
p pull off
b bend 
Tap to rate this tab
# A B C D E F G H I J K L M N O P Q R S T U V W X Y Z