Guitaretab - guitar tabs
Song name
# A B C D E F G H I J K L M N O P Q R S T U V W X Y Z

Afi - I Wanna Get A Mohawk tab

Intro
|-----------------------------------|
|-----------------------------------|
|-----------------------------------|   x2
|-12/15-10-12/15-10-12/15-10-12-----|p
|-12/15-10-12/15-10-12/15-10-12-----|p
|-12/15-10-12/15-10-12/15-10-12-----|p

Verse
|----------------------|
|----------------------|
|-77777777--------5----|
|-77777777-8888-555----|   x4
|-55555555-8888-553----|
|----------8888-55-----|

Chorus
|----------------|
|----------------|
|----------------|
|-12-12-1514-10--| x3
|-12-12-1514-10--|
|-12-12-1514-10--|

Chorus (Cont.)
|----------------|
|----------------|
|----------------|
|-1212121212-1514
|-1212121212-1514
|-1212121212-1514

Chorus (Cont.)
|----------------|
|----------------|
|----------------|
|-12-12-1514-10--| x3
|-12-12-1514-10--|
|-12-12-1514-10--|

Chorus (Cont.)
|----------------|
|----------------|
|----------------|
|-1212121212-1514
|-1212121212-1514
|-1212121212-1514

Verse
|----------------------|
|----------------------|
|-77777777--------5----|
|-77777777-8888-555----|   x4
|-55555555-8888-553----|
|----------8888-55-----|
[ Tab from: http://www.guitaretab.com/a/afi/31906.html ]
Chorus
|----------------|
|----------------|
|----------------|
|-12-12-1514-10--| x3
|-12-12-1514-10--|
|-12-12-1514-10--|

Chorus (Cont.)
|----------------|
|----------------|
|----------------|
|-1212121212-1514
|-1212121212-1514
|-1212121212-1514

Chorus (Cont.)
|----------------|
|----------------|
|----------------|
|-12-12-1514-10--| x3
|-12-12-1514-10--|
|-12-12-1514-10--|

Chorus (Cont.)
|----------------|
|----------------|
|----------------|
|-1212121212-1514
|-1212121212-1514
|-1212121212-1514

Bridge
|-----------------------------------------------------|
|-----------------------------------------------------|
|---------------------10--------------------------10--|
|-12-1212121212121212-10-10-12-1212121212121212-8-10--| x2
|-12-1212121212121212--8-10-12-1212121212121212-8--8--|
|-12-1212121212121212----10-12-1212121212121212-8-----|
   pm................          ................


Outro
|-----------------------------------|
|-----------------------------------|
|-----------------------------------|   x2
|-12/15-10-12/15-10-12/15-10-12-----|p
|-12/15-10-12/15-10-12/15-10-12-----|p
|-12/15-10-12/15-10-12/15-10-12-----|p
Related for I Wanna Get A Mohawk tab
×
I Wanna Get A Mohawk