Song name
# A B C D E F G H I J K L M N O P Q R S T U V W X Y Z

Afi - Half Empty Bottle tab

Help us improve GuitareTab! Take a short survey!
AFI
Half Empty Bottle
  Tabbed by Danc446
  danc446@yahoo.com

INTRO
e|-------------------------------------------|
B|-------------------------------------------|
G|-----------7-7-7-7--10-10-10-10------------|
D|--9-9-9-9--7-7-7-7--10-10-10-10---9-9-9-9--|
A|--9-9-9-9--5-5-5-5---8--8--8--8---9-9-9-9--|
E|--7-7-7-7-------------------------7-7-7-7--|

VERSE
e|----------------------------------------------|
B|----------------------------------------------|
G|----------------------------------------------|
D|--7/9-9-9-9--7/9-9-9-9-9\2/5\4-4-4-4-4\7\xx---|
A|--7/9-9-9-9--7/9-9-9-9-9\2/5\4-4-4-4-4\7\xx---|
E|--5/7-7-7-7--5/7-7-7-7-7\0/3\2-2-2-2-2\5\xx---|

e|---------------------------------------------|
B|---------------------------------------------|
G|------------------------7-7-7-7-7--9-9/10\9--|
D|--9-9-9-9-9--9-9-9-9-9--7-7-7-7-7--9-9/10\9--|
A|--9-9-9-9-9--9-9-9-9-9--5-5-5-5-5--7-7/-8\7--|
E|--7-7-7-7-7--7-7-7-7-7-----------------------|

SOLO       (Thank you Tom P.)
e|-----------------------------------------------------------------------|
B|-----------------------------------------------------------------------|
G|---------------------------------------------------------------10p9p7--|
D|--7--9-9::::-------------9\7-----------7-9-7----7-7-9-7-7--9-9---------|
A|-------------7--10-10:::-----10-7-7--10------10------------------------|
E|-----------------------------------------------------------------------|

Solo Rythym
e|----------------------------------------------------------|
B|----------------------------------------------------------|
G|----------------------------------------------------------|
D|--7/9-9--7/9-9--7/9-9--7/9-9--2/5-5--2/5-5--2/5-5--2/5-5--|
A|--7/9-9--7/9-9--7/9-9--7/9-9--2/5-5--2/5-5--2/5-5--2/5-5--|
E|--5/7-7--5/7-7--5/7-7--5/7-7--0/3-3--0/3-3--0/3-3--0/3-3--|


THAT"S IT!!!!
Related for Half Empty Bottle tab