Song name
# A B C D E F G H I J K L M N O P Q R S T U V W X Y Z

Afi - High School Football Hero tab

this is another Afi classic.This my first tab

~=let ring

               Intro
E---------------------------------------------------------------------------|
B---------------------------------------------------------------------------|
G---------------------------------------------------------------------------|
D---------------------------------------------------------------------------|
A----7~--------7~-----------------------------------------------------------|
E----5~--------5~-----------------------------------------------------------|


                   Chorus
E---------------------------------------------------------------------------|
B---------------------------------------------------------------------------|
G---------------------------------------------------------------------------|
D----------7----5-----------------------------------------------------------|
A----7-----5----3----7---5---10---------------------------------------------|
E----5---------------5---3---8----------------------------------------------|


                      Verse
E----------------------------------------------------------------------------|
B----------------------------------------------------------------------------|
G----------------------------------------------------------------------------|
D---------7-----------7-------------7-----------9------------7----------7----|
A----7----5----5------5------7------5-----5-----7------7-----5----5-----5----|
E----5---------3-------------5------------3------------5----------3----------|


-----------------------------------------------------------------------------|
-----------------------------------------------------------------------------|
-----------------------------------------------------------------------------|
------------7----------------------------------------------------------------|
------7-----5----5-----------------------------------------------------------|
------5----------3------0-0-0-0-0--------------------------------------------|

                   Outro
E----------------------------------------------------------------------------|
B----------------------------------------------------------------------------|
G----------------------------------------------------------------------------|
D----------------------------------------------------------------------------|
A----7-----7-----7---7---7---------------------------------------------------|
E----5-----5-----5---5---5---------------------------------------------------|

Order:
Intro
Chorus x's 4
Verse 1
Chorus x'4
Verse 2
Chorus x's 8
Outro
Tap to rate this tab
 
# A B C D E F G H I J K L M N O P Q R S T U V W X Y Z