Song name
# A B C D E F G H I J K L M N O P Q R S T U V W X Y Z

Afi - This Secret Ninja tab

i included the bass line...
have fun! =D
questions?
comments?
friend?
smg_107@yahoo.com

standard tuning: eBGDAE

intro:
guitar-
|----------------------------------------------------|
|----------------------------------------------------|
|----------------------------------------------------|
|-----12-12------------------------12-12-------------|
|-9-9-10-10-12-12-12121212-----9-9-10-10-12-12--55-5-|
|-7-7-------10-10-10101010-----7-7-------10-10--33-3-|
bass-
|----------------------------------------------------|
|----------------------------------------------------|
|----------------------------------------------------|
|----------------------------------------------------|



guitar-
|----------------------------------------------------|
|----------------------------------------------------|
|----------------------------------------------------|
|-----12-12-------------------11---------------------|
|-9-9-10-10-12-12-12121212-----9---------------------|
|-7-7-------10-10-10101010----^^-strum-16-times-fast*| *not too sure about
bass-                                                   how many times to 
|----------------------------------------------------|  strum, but play till
|----------------------------------------------------|  it feels right
|------------------------------9---------------------|
|------------------------------^-strum-16-times-fast*|



verse:
guitar-
|----------------------------------------------------|
|----------------------------------------------------|
|----------------------------------------------------|
|-----12-12------------------------12-12-------------|
|-9-9-10-10-12-12-12121212-----9-9-10-10-12-12--55-5-|
|-7-7-------10-10-10101010-----7-7-------10-10--33-3-|
bass-
|----------------------------------------------------|
|----------------------------------------------------|
|-----10-10------------------------10-10-------------|
|-7-7-------10-10-10101010-----7-7-------10-10--33-3-|


guitar-
|----------------------------------------------------|
|----------------------------------------------------|
|----------------------------------------------------|
|-----12-12-------------------11---------------------|
|-9-9-10-10-12-12-12121212-----9---------------------|
|-7-7-------10-10-10101010----^^-strum-16-times-fast*|
bass-
|----------------------------------------------------|
|----------------------------------------------------|
|-----10-10--------------------9---------------------|
|-7-7-------10-10-10101010-----^-strum-16-times-fast*|



chorus:
guitar-
|----------------------------------------------------|
|----------------------------------------------------|
|----------------------------------------------------|
|------------------------7-7-------------------------|
|-9-9-9-9--7-7-77-7--9-9-5-5--5-5-5555---------------|
|-7-7-7-7--5-5-55-5--7-7------3-3-3333---------------|
bass-
|----------------------------------------------------|
|----------------------------------------------------|
|------------------------5-5-------------------------|
|-7-7-7-7--5-5-55-5--7-7------3-3-3333---------------|


guitar-
|----------------------------------------------------|
|----------------------------------------------------|
|----------------------------------------------------|
|--------------------7-7-----------------------------|
|-9-9-9-9--7-7-77-7--5-5-7-7--5-5-5555---------------|
|-7-7-7-7--5-5-55-5------5-5--3-3-3333---------------|
bass-
|----------------------------------------------------|
|----------------------------------------------------|
|--------------------5-5-----------------------------|
|-7-7-7-7--5-5-55-5------5-5--3-3-3333---------------|



bridge:
guitar-
|----------------------------------------------------|
|----------------------------------------------------|
|----------------------------------------------------|
|----------------------------9-9-9-9-----------------|
|-9-9-9-9--5-5-5-5--7-7-7-7--7-7-7-7-----------------|
|-7-7-7-7--3-3-3-3--5-5-5-5--------------------------|
bass-
|----------------------------------------------------|
|----------------------------------------------------|
|----------------------------7-7-7-7-----------------|
|-7-7-7-7--3-3-3-3--5-5-5-5--------------------------|



guitar-
|----------------------------------------------------|
|----------------------------------------------------|
|----------------------------------------------------|
|----------------------------------------------------|
|-9-9-9-9--5-5-5-5--7-7-7-7--4-4-4-4-----------------|
|-7-7-7-7--3-3-3-3--5-5-5-5--2-2-2-2-----------------|
bass-
|----------------------------------------------------|
|----------------------------------------------------|
|----------------------------------------------------|
|-7-7-7-7--3-3-3-3--5-5-5-5--2-2-2-2-----------------|



order-
intro
verse x2
chorus x2
verse x2
chorus x2
bridge
verse x2
chorus x2
Tap to rate this tab
# A B C D E F G H I J K L M N O P Q R S T U V W X Y Z