Song name
# A B C D E F G H I J K L M N O P Q R S T U V W X Y Z

Afi - At A Glance tab

|-------------------------------------------------------------------------|
|-------------------------------------------------------------------------|
|-12-12-12-12-12-12-12-12-15-15-15-15-15-15-15-15-14-14-14-14-14-14-14-14-|
|-------------------------------------------------------------------------|
|-10-10-10-10-10-10-10-10-13-13-13-13-13-13-13-13-12-12-12-12-12-12-12-12-|
|-------------------------------------------------------------------------|

|-------------------------------------------------------------------------|
|-------------------------------------------------------------------------|
|-17-17-17-17-17-17-17-17-19-19-19-19-19-19-19-19-20-20-20-20-20-20-20-20-|
|-------------------------------------------------------------------------|
|-15-15-15-15-15-15-15-15-17-17-17-17-17-17-17-17-18-18-18-18-18-18-18-18-|
|-------------------------------------------------------------------------|

|-------------------------------------------------------------------------|
|-------------------------------------------------------------------------|
|-17-17-17-17-17-17-17-17-15-15-15-14-14-14-12-12-15-15-15-14-14-14-12-12-|
|-------------------------------------------------------------------------|
|-15-15-15-15-15-15-15-15-13-13-13-12-12-12-10-10-13-13-13-12-12-12-10-10-|
|-------------------------------------------------------------------------|

|-------------------------------------------------------------------------|
|-------------------------------------------------------------------------|
|-15-15-15-14-14-14-12-12-10-10-10-10-10-10-10-10-14-14-14-14-14-14-14-14-|
|-------------------------------------------------------------------------|
|-13-13-13-12-12-12-10-10--8--8--8--8--8--8--8--8-12-12-12-12-12-12-12-12-|
|-------------------------------------------------------------------------|

|-------------------------------------------------------------------------|
|-------------------------------------------------------------------------|
|-12-12-12-12-12-12-12-12-10-10-10-10-10-10-10-10-10-10-10-10-10-10-10-10-|
|-------------------------------------------------------------------------|
|-10-10-10-10-10-10-10-10--8--8--8--8--8--8--8--8--8--8--8--8--8--8--8--8-|
|-------------------------------------------------------------------------|

|---------------------------------|
|---------------------------------|
|-7-7-7-7-7-7-7-7-----------------|
|-----------------5---------------|
|-5-5-5-5-5-5-5-5-5-*let it ring*-|
|-----------------3---------------|

well thats it. if you have any questions email me at nevaeh_rocks@yahoo.com.
Tap to rate this tab
# A B C D E F G H I J K L M N O P Q R S T U V W X Y Z