Song name
# A B C D E F G H I J K L M N O P Q R S T U V W X Y Z

Afi - Sacrifice Theory tab

This is the small part at the end, it is hard to hear, so here is a rough approximation:

----10-------12----14----14-14----14-14----14-|
-10----10-10----10----12-------12-------15----|
----------------------------------------------|
----------------------------------------------|
----------------------------------------------|
----------------------------------------------|

14----14----12-12----12-12---12-12-----10----|
---15----14-------14-------14-------10----10-|
---------------------------------------------|
---------------------------------------------|
---------------------------------------------|
---------------------------------------------|


---12----14----14-14----14-14----14-14----14-|
10----10----12-------12-------15-------15----|
---------------------------------------------|
---------------------------------------------|
---------------------------------------------|
---------------------------------------------|

---12-12-15----------------------------------|
14----------14--15---------------------------|
---------------------------------------------|
---------------------------------------------|
---------------------------------------------|
---------------------------------------------|
Tap to rate this tab
 
# A B C D E F G H I J K L M N O P Q R S T U V W X Y Z