Song name
# A B C D E F G H I J K L M N O P Q R S T U V W X Y Z

Afi - Let It Be Broke tab

"Let It Be Broke"
 AFI
 Shut your mouth and open your eyes

      *This basically the same tab as the original on this page, but i just 
       made it A LOT easier to read. ENJOY!

Intro (palm muted)
E|------------------------|
B|------------------------|
G|-9/111111111111---------|
D|-9/111111111111---------|
A|-7/9-9-9-9-9-9----------|
e|-7/9-9-9-9-9-9----------|

Pre-Verse
E|------------------------------------|
B|------------------------------------|
G|------------5-----------------------|
D|-7/9---5----5-----7--7----0--4----4-|
A|-7/9---5----3-----7--7----0--4----4-|
e|-5/7---3----3-----5--5----0--2----2-|

Verse 1
E|----------------------------------------|
B|----------------------------------------|
G|----------------------------------------|
D|--2--4-4---------55555555----77777777---|
A|--2--4-4-(4X)----55555555----77777777---|
e|--0--2-2---------33333333----55555555---|

Verse 2
E|--------------------------------------------------------------------------|
B|--------------------------------------------------------------------------|
G|-55555555----------55555555----------55555555-----------5--5---7----9--11-|
D|-55555555-44444444-55555555-44444444-55555555-4444-2-44-5--5---7----9--11-|
A|-33333333-44444444-33333333-44444444-33333333-4444-2-44-3--3---5----7--9--|
e|-33333333-22222222-33333333-22222222-33333333-2222-0-22-3--3---5----7--9--|

Chorus
E|--------------------------------------------------------------------------|
B|--------------------------------------------------------------------------|
G|11-11-0-9-0-7-7-0--------------------11-11-0-9-0-7-7-0-121212121212121212-|
D|11-11-0-9-0-7-7-0-999999-0-7-0-4-4-0-11-11-0-9-0-7-7-0-121212121212121212-|
A|9--9--0-7-0-5-5-0-999999-0-7-0-4-4-0-9--9--0-7-0-5-5-0-101010101010101010-|
e|9--9--0-7-0-5-5-0-777777-0-5-0-2-2-0-9--9--0-7-0-5-5-0-101010101010101010-|

Bridge 1                                                      _____
E|--------------------------------------------------------|--|---| |
B|--------------------------------------------------------|--|---| |
G|------------5---------------------------5---------------|--v---| |
D|-7/9---5----5-----7-7-7------7/9---5----5-----7-7-7-----|--7---| Strum this
A|-7/9---5----3-----7-7-7------7/9---5----3-----7-7-7-----|--x---| chord many
e|-5/7---3----3-----5-5-5------5/7---3----3-----5-5-5-----|--5---| times.

Bridge 2
E|----------------------------------------------------|
B|----------------------------------------------------|
G|-11-11---0--9-0---7--7-0----------------------------|
D|-11-11---0--9-0---7--7-0---999999-0---7-0---4--4-0--|
A|-9--9----0--7-0---5--5-0---999999-0---7-0---4--4-0--|
e|-9--9----0--7-0---5--5-0---777777-0---5-0---2--2-0--|
 *Play this with harmonics and string noise.
   (Drag your finger down the strings piching up the harmonics and
     hitting the D,G,B, & E strings while muting with your picking and.)
Tap to rate this tab
# A B C D E F G H I J K L M N O P Q R S T U V W X Y Z