Guitaretab - guitar tabs
Song name
# A B C D E F G H I J K L M N O P Q R S T U V W X Y Z

Afi - The Leaving Song Part 2 tab

Victor and Jarad's AFI- leaveing song part 2 tab

tuning: Eb G# C# F# A# eb (all 1/2 step down)

( )- optional harmonic
< >- harmonic
pm- palm mute
+- pick slide
x- dead note
h- hammer 
p- pluck off

R- right hand
L- Left hand

#'s mean what finger to use 
1= index 
2= middle
3= ring  
4= pinky

Intro Riff 1 play 3 times and fade in
[Distortion]
 
(use a guitar with good pick-ups)(or switch to a good pick up)

     2    2  1   2     2--0-1-  2   2                              
     R--- L  L   R--r- L--l---  L   R                              
eb|-h19p0h15p14--------14p0p12-----h19---------------------------------
A#|-------------h15/19---------h15-------------------------------------
F#|--------------------------------------------------------------------
C#|--------------------------------------------------------------------
G#|--------------------------------------------------------------------
Eb|--------------------------------------------------------------------

Intro's outro Riff
[Distortion] (use a guitar with good pick-ups)

     2    2  1   2     2--0-1-  2   2  2  1  2  1  2  1        2   
     R--- L  L   R--r- L--l---  L   R--r- L  R  L--l--l        R   
eb|-h19p0h15p14--------14p0p12-----h17/19p15h17p14h15p14-hold-p12------
A#|-------------h15/19---------h15-------------------------------------
F#|--------------------------------------------------------------------
C#|--------------------------------------------------------------------
G#|--------------------------------------------------------------------
Eb|--------------------------------------------------------------------

                                                  ----End-Intro----
[All Distorion]
eb|--------------------------------------------------------------------
A#|--------------------------------------------------------------------
F#|-12-11-9---9-9-----12-11-9---9-9-9-----12-13-9--9-9-----------------
C#|-x--x--x---x-x-----x--x--x---x-x-x-----x--x--x--x-x-----------------
G#|-10-9--7---7-7-----10-9--7---7-7-7-----10-12-7--7-7-----------------
Eb|--------------------------------------------------------------------


eb|--------------------------------------------------------------------
A#|--------------------------------------------------------------------
F#|-7--7---------------------------------------------------------------
C#|-7--7-4/5-5-5/7-7-7-------------------------------------------------
G#|-5--5-4/5-5-5/7-7-7-------------------------------------------------
Eb|-0--0-2/3-3-3/5-5-5-------------------------------------------------

eb|--------------------------------------------------------------------
A#|--------------------------------------------------------------------
F#|-12-11-9---9-9-----12-11-9---9-9-9-----12-13-9--9-9-----------------
C#|-x--x--x---x-x-----x--x--x---x-x-x-----x--x--x--x-x-----------------
G#|-10-9--7---7-7-----10-9--7---7-7-7-----10-12-7--7-7-----------------
Eb|--------------------------------------------------------------------

eb|--------------------------------------------------------------------
A#|--------------------------------------------------------------------
F#|-7--7---------------------------------------------------------------
C#|-7--7-4/5-5-5/7-7-7-------------------------------------------------
G#|-5--5-4/5-5-5/7-7-7-------------------------------------------------
Eb|-0--0-2/3-3-3/5-5-5-------------------------------------------------

    | play a little slow  |  |      play notes a little fast         |
eb|-12-15-14----x-14-x-12-x--12-x-x-15-x-x-14-x-x----------14-14-14-12-
A#|----------15-----------------------------------15-15-15-------------
F#|--------------------------------------------------------------------
C#|--------------------------------------------------------------------
G#|--------------------------------------------------------------------
Eb|--------------------------------------------------------------------

eb|-12-0-0-15-0-0-14-0-0----0-0-14-0-12-0--12-12-12-15-15-15-14-bend---
A#|----------------------15----------------12-12-12-15-15-15-14--up----
F#|--------------------------------------------------------------a-----
C#|------------------------------------------------------------little--
G#|--------------------------------------------------------------------
Eb|--------------------------------------------------------------------


     pick slide down the neck fast
eb|--------------------------------------------------------------------
A#|---<-----from-21st fret-----to-7th-fret---------->------------------
F#|--------------------------------------------------------------------
C#|-+++++++++++++++++++++++++++++++++++++++++++++++++++++++++++++++++++
G#|-+++++++++++++++++++++++++++++++++++++++++++++++++++++++++++++++++++
Eb|-+++++++++++++++++++++++++++++++++++++++++++++++++++++++++++++++++++

eb|--------------------------------------------------------------------
A#|--------------------------------------------------------------------
F#|----9--12-12-9-7-7------9--12-12-12-13-13-----9--12-12-9-7-7--------
C#|-2--9--12-12-9-7-7---2--9--12-12-12-13-13---2-9--12-12-9-7-7--------
G#|-2--7--10-10-7-5-5---2--7--10-10-10-12-12---2-7--10-10-7-5-5--------
Eb|-0-------------------0----------------------0-----------------------

eb|----------------5---------------------------------------------------
A#|--------5---------5-------------------------------------------------
F#|--5-x-x---5-x-x-----5-4-4-7-9-9----------------7/9-9-9-9------------
C#|--------------------------7-9-9-hold-a-little--7/9-9-9-9------------
G#|--------------------------5-7-7----------------5/7-7-7-7------------
Eb|--------------------------------------------------------------------



eb|--------------------------------------------------------------------
A#|--------------------------------------------------------------------
F#|-12-11-9---9-9-----12-11-9---9-9-9-----12-13-9--9-9-----------------
C#|-x--x--x---x-x-----x--x--x---x-x-x-----x--x--x--x-x-----------------
G#|-10-9--7---7-7-----10-9--7---7-7-7-----10-12-7--7-7-----------------
Eb|--------------------------------------------------------------------


eb|--------------------------------------------------------------------
A#|--------------------------------------------------------------------
F#|-7--7---------------------------------------------------------------
C#|-7--7-4/5-5-5/7-7-7-------------------------------------------------
G#|-5--5-4/5-5-5/7-7-7-------------------------------------------------
Eb|-0--0-2/3-3-3/5-5-5-------------------------------------------------

eb|--------------------------------------------------------------------
A#|--------------------------------------------------------------------
F#|-12-11-9---9-9-----12-11-9---9-9-9-----12-13-9--9-9-----------------
C#|-x--x--x---x-x-----x--x--x---x-x-x-----x--x--x--x-x-----------------
G#|-10-9--7---7-7-----10-9--7---7-7-7-----10-12-7--7-7-----------------
Eb|--------------------------------------------------------------------

eb|--------------------------------------------------------------------
A#|--------------------------------------------------------------------
F#|-7--7---------------------------------------------------------------
C#|-7--7-4/5-5-5/7-7-7-------------------------------------------------
G#|-5--5-4/5-5-5/7-7-7-------------------------------------------------
Eb|-0--0-2/3-3-3/5-5-5-------------------------------------------------

    | play a little slow  |  | play notes a little fast
eb|-12-15-14----x-14-x-12-x--12-x-x-15-x-x-14-x-x----------14-14-14-12-
A#|----------15-----------------------------------15-15-15-------------
F#|--------------------------------------------------------------------
C#|--------------------------------------------------------------------
G#|--------------------------------------------------------------------
Eb|--------------------------------------------------------------------
[ Tab from: http://www.guitaretab.com/a/afi/34913.html ]
eb|-12-0-0-15-0-0-14-0-0----0-0-14-0-12-0--12-12-12-15-15-15-14-bend---
A#|----------------------15----------------12-12-12-15-15-15-14--up----
F#|--------------------------------------------------------------a-----
C#|------------------------------------------------------------little--
G#|--------------------------------------------------------------------
Eb|--------------------------------------------------------------------


     pick slide down the neck fast
eb|--------------------------------------------------------------------
A#|---<-----from-21st fret-----to-7th-fret---------->-------------------
F#|--------------------------------------------------------------------
C#|-+++++++++++++++++++++++++++++++++++++++++++++++++++++++++++++++++++
G#|-+++++++++++++++++++++++++++++++++++++++++++++++++++++++++++++++++++
Eb|-+++++++++++++++++++++++++++++++++++++++++++++++++++++++++++++++++++

eb|--------------------------------------------------------------------
A#|--------------------------------------------------------------------
F#|----9--12-12-9-7-7------9--12-12-12-13-13-----9--12-12-9-7-7--------
C#|-2--9--12-12-9-7-7---2--9--12-12-12-13-13---2-9--12-12-9-7-7--------
G#|-2--7--10-10-7-5-5---2--7--10-10-10-12-12---2-7--10-10-7-5-5--------
Eb|-0-------------------0----------------------0-----------------------



eb|----------------5---------------------------------------------------
A#|--------5---------5-------------------------------------------------
F#|--5-x-x---5-x-x-----5-4-4-7-9---------------------------------------
C#|--------------------------7-9---------------------------------------
G#|--------------------------5-7---------------------------------------
Eb|--------------------------------------------------------------------



eb|--------------------------------------------------------------------
A#|--------------------------------------------------------------------
F#|----9--12-12-9-7-7------9--12-12-12-13-13-----9--12-12-9-7-7--------
C#|-2--9--12-12-9-7-7---2--9--12-12-12-13-13---2-9--12-12-9-7-7--------
G#|-2--7--10-10-7-5-5---2--7--10-10-10-12-12---2-7--10-10-7-5-5--------
Eb|-0-------------------0----------------------0-----------------------

eb|----------------5---------------------------------------------------
A#|--------5---------5-------------------------------------------------
F#|--5-x-x---5-x-x-----5-4-4-7-9-9-------------------------------------
C#|--------------------------7-9-9---2-2-2-2---2-2-2---2-2-2-2-2-2-----
G#|--------------------------5-7-7---2-2-2-2---2-2-2---2-2-2-2-2-2-----
Eb|----------------------------------0-0-0-0---0-0-0---0-0-0-0-0-0-----
                                   pm-------   -----   -----------

eb|--------------------------------------------------------------------
A#|--------------------------------------------------------------------
F#|--------------------------------------------------------------------
C#|--2-2-2-2---2-2-2---2-2-2-2-2-2-------2-2-2-2---2-2-2---2-2-2-2-2-2-
G#|--2-2-2-2---2-2-2---2-2-2-2-2-2-------2-2-2-2---2-2-2---2-2-2-2-2-2-
Eb|--0-0-0-0---0-0-0---0-0-0-0-0-0-------0-0-0-0---0-0-0---0-0-0-0-0-0-
   pm-------   -----   -----------       -------   -----   -----------


eb|--------------------------------------------------------------15----
A#|-----------------------------------------------------------------15-
F#|----------------4--------5-----------------2-----4/5-4--------------
C#|-2-2-2---2-2-2--4-2-2-2--5-2-2-2-2-2-2-2-2-2-2-2-4/5-4-2-2-2--------
G#|-2-2-2---2-2-2--2-2-2-2--3-2-2-2-2-2-2-2-2-0-2-2-2/3-2-2-2-2--------
Eb|-0-0-0---0-0-0----0-0-0----0-0-0-0-0-0-0-0---0-0-------0-0-0--------
  pm-----            -----    ---------------   ---       -----
 
eb|--------------------------------------------------------------------
A#|--------------------------------------------------------------------
F#|-----4--------5-5-5/4-4-4--4-4-4/2-2-2-2-2/9-9-9-9-9/12-12-12-12-12-
C#|-----4-2-2-2--5-5-5/4-4-4--4-4-4/2-2-2-2-2/9-9-9-9-9/12-12-12-12-12-
G#|-----2-2-2-2--3-3-3/2-2-2--2-2-2/0-0-0-0-0/7-7-7-7-7/10-10-10-10-10-
Eb|-------0-0-0--------------------------------------------------------
 pm       -----

Solo

(i think a second guitar plays the 16 14 14 parts but im not sure)

eb|-14-14-15----------14-17-15-----------14-14-15------------17-17-19--
A#|--------------------------------------------------------------------
F#|----------16----------------16-----------------16-------------------
C#|-------------14-14-------------14-14--------------14-14---14-14-14--
G#|--------------------------------------------------------------------
Eb|--------------------------------------------------------------------




eb|-14-14-15----------14-17-15-----------14-14-15----------------------
A#|--------------------------------------------------------------------
F#|----------16----------------16-----------------16-------------------
C#|-------------14-14-------------14-14--------------14-14-------------
G#|--------------------------------------------------------------------
Eb|--------------------------------------------------------------------



eb|-----17----17----17---17----17--------------------------------------
A#|-13-----13----13---13----13-----------------------------------------
F#|---------------------------------8-8-8-8-8-8-8-8-8-8----------------
C#|-----14-14-14-14-14-14-14-14-14--x-x-x-x-x-x-x-x-x-x----------------
G#|---------------------------------6-6-6-6-6-6-6-6-6-6----------------
Eb|--------------------------------------------------------------------

eb|--------------------------------------------------------------------
A#|--------------------------------------------------------------------
F#|--11-11-11-11-11-11-11-11-11-11-14-14-14-14-14-14-14-14-14-14-------
C#|--x--x--x--x--x--x--x--x--x--x--x--x--x--x--x--x--x--x--x--x--------
G#|--9--9--9--9--9--9--9--9--9--9--12-12-12-12-12-12-12-12-12-12-------
Eb|--------------------------------------------------------------------

eb|--------------------------------------------------------------------
A#|--------------------------------------------------------------------
F#|----9--12-12-9-7-7------9--12-12-12-13-13-----9--12-12-9-7-7--------
C#|-2--9--12-12-9-7-7---2--9--12-12-12-13-13---2-9--12-12-9-7-7--------
G#|-2--7--10-10-7-5-5---2--7--10-10-10-12-12---2-7--10-10-7-5-5--------
Eb|-0-------------------0----------------------0-----------------------

eb|----------------5---------------------------------------------------
A#|--------5---------5-------------------------------------------------
F#|--5-x-x---5-x-x-----5-4-4-7-9---------------------------------------
C#|--------------------------7-9---------------------------------------
G#|--------------------------5-7---------------------------------------
Eb|--------------------------------------------------------------------

eb|--------------------------------------------------------------------
A#|--------------------------------------------------------------------
F#|----9--12-12-9-7-7------9--12-12-12-13-13-----9--12-12-9-7-7--------
C#|-2--9--12-12-9-7-7---2--9--12-12-12-13-13---2-9--12-12-9-7-7--------
G#|-2--7--10-10-7-5-5---2--7--10-10-10-12-12---2-7--10-10-7-5-5--------
Eb|-0-------------------0----------------------0-----------------------

eb|----------------5---------------------5-----------------------------
A#|--------5---------5-----------7---------7---------------------------
F#|--5-x-x---5-x-x-----5---7-x-x---7-x-x-----7-------------------------
C#|--------------------------------------------------------------------
G#|--------------------------------------------------------------------
Eb|--------------------------------------------------------------------


eb|---------------------------------------------------------------(5)--
A#|---------------------------------------------------------------<5>--
F#|----------9-9--8-8-8-8-8-8-8-8--9------------------------------<5>--
C#|-9-9-9-9--x-x--x-x-x-x-x-x-x-x--x---2-2-2--2--2-2-2--2--2--2---<5>--
G#|-x-x-x-x--7-7--6-6-6-6-6-6-6-6--7---2-2-2--2--2-2-2--2--2--2---<5>--
Eb|-7-7-7-7----------------------------0-0-0--0--0-0-0--0--0--0---(5)--

Any questions email me at vdi_Sk8eR@yahoo.com
I know for a fact it sounds good but I doubt its how jade plays it its
Damn close though! Have fun playing!
I spent 8 hours straight watching the video learning this tab so yeah!
And plus this is my very first whole song tab everÖ so donít go crazy
If im wrong.
Related for The Leaving Song Part 2 tab