Song name
# A B C D E F G H I J K L M N O P Q R S T U V W X Y Z

Afi - 17 Crimes tab

Intro
e-3-------------------------------5555555-5/7777777-7/8888888-8/10101010101010-10/1212~--|
b---55555-5/33333-3/111111-000000--------------------------------------------------------|
g----------------------------------------------------------------------------------------|
d----------------------------------------------------------------------------------------|
a----------------------------------------------------------------------------------------|
e----------------------------------------------------------------------------------------|

Verse 1
e----------------------------------------------------------------------|
b----------------------------------------------------------------------|
g-(5~)---10~------(5)-------------------10~----10-10-10-10-10-10-10-10-|
d--7~----10~-------7--7/9--9/10--10/12--10~----10-10-10-10-10-10-10-10-|
a--7~-----8~-------7---------------------8~-----8--8--8--8--8--8--8--8-|
e--5~--------------5---------------------------------------------------|

Chorus (Can either strike chord once and let it ring or play it in rhythm of song)
e-------------------------------------------------------------|
b-------------------------------------------------------------|
g-5~----------------------------------------------------------|  2x
d-5~------5~------3~------------3~------5~------7~------------|
a-3~------5~------3~------------3~------5~------7~------------|
e---------3~------1~------------1~------3~------5~------------|

Verse 2
e-----------------------------------------------------------------|
b-----------------------------------------------------------------|
g-(5~)----(5)--10-9-7---10~------------7-(5)----------------------|
d--7~------7----------9-10~----10-9-10----7--7/9--9/10--10/12-----|
a--7~------7-------------8~---------------7-----------------------|
e--5~------5------------------------------5-----------------------|

e-5555555-5/7777777-7/8888888-8/10101010101010-|
b----------------------------------------------|
g----------------------------------------------|
d----------------------------------------------|
a----------------------------------------------|
e----------------------------------------------|

Chorus 2
e-121212121212------------------------------------------------------------------------------|
b--------------121212121212-131313131313131313131313-121212121212---------------------------|
g-----------------------------------------------------------------141414141414141414141414--|
d-------------------------------------------------------------------------------------------|
a-------------------------------------------------------------------------------------------|
e-------------------------------------------------------------------------------------------|

e----------------------------------------------------------------------------------------|
b-------13--121212121212-131313131313131313131313-121212121212---------------------------|
g----12--------------------------------------------------------141414141414141414141414--|
d-14-------------------------------------------------------------------------------------|
a----------------------------------------------------------------------------------------|
e----------------------------------------------------------------------------------------|

Solo
e-3-------------------------------3-------------------------------|
b---55555-5/33333-3/111111-000000---55555-5/33333-3/111111-000000-|
g-----------------------------------------------------------------|
d-----------------------------------------------------------------|
a-----------------------------------------------------------------|
e-----------------------------------------------------------------|

e-55555-5/77777-7/88888-8/1010101010-10/12121212121212121212121212-131313131313-12121212-|
b----------------------------------------------------------------------------------------|
g----------------------------------------------------------------------------------------|
d----------------------------------------------------------------------------------------|
a----------------------------------------------------------------------------------------|
e----------------------------------------------------------------------------------------|

Bridge
e------------------------------------------|
b-----------------------------------7------|
g----------------9---------4----------7~---|
d----10------------10~-------5~------------| 2x
a-------12~---10------------------5--------|
e-12---------------------3-----------------|

Final Chorus'
Same as chorus 2 except for this little fill after the end of first final chorus
e-----------------------------|
b-----------------------------|
g-----------------------------|
d-7777-9999-10101010-12121212-|
a-----------------------------|
e-----------------------------|
Tap to rate this tab
# A B C D E F G H I J K L M N O P Q R S T U V W X Y Z