Song name
# A B C D E F G H I J K L M N O P Q R S T U V W X Y Z

Afi - No Resurrection tab

AFI-No Resurrection Intro
Just messing around with new AFI.  dunno the ?????? part yet, but w/e. 
Standard tuning (maybe)
figure out strumming on your own. 

(bass guitar)
E|555555555555555555----7777---3333333333333333333333333

e|--------------8----8-------------------------------------------------|
B|-----------12---12---------------------------------------------------|
G|----------------------?????????????????------------------------------|
D|--7-7-7-7-------------7-7x-7x-7----7---------------------------------|x 2
A|--7-7-7-7-------------7-7x-7x-7--7---7-------------------------------|
E|--5-5-5-5-------------5-5x-5x-5--------------------------------------|
                        
e|----------------------------------------|
B|----------------------------------------|
G|5-5/4-4-4-4--7-7-7/5-5-5/4-4-4----------|
D|--------------------------------5-5-5---|
A|3-3/2-2-2-2--5-5-5/3-3-3/2-2-2----------|
E|--------------------------------3-3-3---|
Tap to rate this tab
 
# A B C D E F G H I J K L M N O P Q R S T U V W X Y Z